Sound will begin in 5 seconds

Edmund - 5/31/15

Chords
01234567891011121314151617181920212223
E
B
G
D
A
E
B
0 1 2 3 4 5 6 7 8 9 10 11 12 13 14 15 16 17 18 19 20 21 22 23
Song Science #1: How Pros Use 6 Chords to Write Hit Songs
(/) Slide Up  (\) Slide Down  (h) Hammer On  (p) Pull Off  (b) Bend (r) Release (v) Vibrato

Stave 1:

E|----------
B|----------
G|--6--4--2--
D|--7--6--4--
A|--0--0--0--
E|----------

Stave 2:

E|--_--------------------------------------------------------------------------
B|--10------------10------------7-----------7-----------------------------------
G|--11-----11-----11-----11-----9-----9-----9-----9-----6-----------6-----------
D|--0---0------0--0---0------0--0--0-----0--0--0-----0--7-----7-----7-----7-----
A|--_--------------------------------------------------0--0-----0--0--0-----0--
E|--_--------------------------------------------------------------------------

Stave 3:

E|--------------------------------------------------------------------------------------
B|--10------------10------------14------------14------------12------------12------------
G|--11-----11-----11-----11-----14-----14-----14-----14-----14-----14-----14-----14-----
D|--0---0------0--0---0------0--0---0------0--0---0------0--0---0------0--0---0------0--
A|--------------------------------------------------------------------------------------
E|--------------------------------------------------------------------------------------

http://www.guitartabcreator.com
Guitar Tab Creator is intended to store guitar tab created through the tool. It currently does not support in-line text editing. Any text you place in here will be lost. If you need to comment on your tab, please use the "Tab Notes" section located below.