Sound will begin in 5 seconds

sweet child o mine main solo

01234567891011121314151617181920212223
E
B
G
D
A
E
B
0 1 2 3 4 5 6 7 8 9 10 11 12 13 14 15 16 17 18 19 20 21 22 23
Song Science #1: How Pros Use 6 Chords to Write Hit Songs
(/) Slide Up  (\) Slide Down  (h) Hammer On  (p) Pull Off  (b) Bend (r) Release (v) Vibrato

Stave 1:

E|--b17--15--14--15--14--12--15--14--15--14--12--11--12--14--
B|-----------------------------------------------------------
G|-----------------------------------------------------------
D|-----------------------------------------------------------
A|-----------------------------------------------------------
E|-----------------------------------------------------------

Stave 2:

E|--------------------------------------------------------------
B|--b15--12---------------------------------13--12--13--12------
G|---------b14--12--11--12------11--12--14------------------14--
D|--------------------------14----------------------------------
A|--------------------------------------------------------------
E|--------------------------------------------------------------

Stave 3:

E|------------------------b15---------------------------------------------------------
B|--b13--13--12--12b12----------------------------------------------------------------
G|----------------------14---b11--9--9b11--9--9b8--11b11--9------/9b11--9--9b8--11b9--
D|---------------------------------------------------------b9--10---------------------
A|------------------------------------------------------------------------------------
E|------------------------------------------------------------------------------------

Stave 4:

E|--------------------------------------------------------------12--14------12--14--15--12--14--
B|----------------------------------12--13--12--16--12--13--16----------16----------------------
G|----------11--12--11------11--14--------------------------------------------------------------
D|--13--14--------------14----------------------------------------------------------------------
A|----------------------------------------------------------------------------------------------
E|----------------------------------------------------------------------------------------------

Stave 5:

E|--15--14--12--14------14--12--14--12------12---------
B|------------------15------------------15----b15--12--
G|-----------------------------------------------------
D|-----------------------------------------------------
A|-----------------------------------------------------
E|-----------------------------------------------------

Stave 6:

E|--------------------------------------------------15----------------
B|--b15b15b15--12----b15b15b15--12----b17b17b17b17----b17b17--15--17--
G|-----------------14---------------14--------------------------------
D|--------------------------------------------------------------------
A|--------------------------------------------------------------------
E|--------------------------------------------------------------------

Stave 7:

E|-------12---------------------------------------------------15-------------------------------------------
B|--b15------15--12--------------v--v--15-----------v--v--15-----------------------------------------------
G|-----------------b14--12----b14----------14--12b14--------------14--12------14--12------b12--------------
D|--------------------------14--------------------------------------------14--------\14\14-----14--12--14--
A|---------------------------------------------------------------------------------------------------------
E|---------------------------------------------------------------------------------------------------------

Stave 8:

E|------------------------------------
B|------------------------------------
G|--12--14--12--------12--------------
D|------------\14\14------14--12--14--
A|------------------------------------
E|------------------------------------

Stave 9:

E|------------------------------------------------------------------12--12----------15--15--12------
B|----------------------------------12--12----------15--15--12--------------15--12--------------15--
G|--12--12----------14--14--12--14----------14--12--------------14----------------------------------
D|----------14--12----------------------------------------------------------------------------------
A|--------------------------------------------------------------------------------------------------
E|--------------------------------------------------------------------------------------------------

Stave 10:

E|--12--15--12-----12-----12-------------12--15--12b15--15--12--15--12------12------------
B|------------b15----b15------15--12------------------------------------15----------------
G|----------------------------------b14---------------------------------------b14b14--12--
D|----------------------------------------------------------------------------------------
A|----------------------------------------------------------------------------------------
E|----------------------------------------------------------------------------------------

http://www.guitartabcreator.com
Guitar Tab Creator is intended to store guitar tab created through the tool. It currently does not support in-line text editing. Any text you place in here will be lost. If you need to comment on your tab, please use the "Tab Notes" section located below.