Sound will begin in 5 seconds

QUICK AND CLEAN

Chords
01234567891011121314151617181920212223
E
B
G
D
A
E
B
0 1 2 3 4 5 6 7 8 9 10 11 12 13 14 15 16 17 18 19 20 21 22 23
Song Science #1: How Pros Use 6 Chords to Write Hit Songs
(/) Slide Up  (\) Slide Down  (h) Hammer On  (p) Pull Off  (b) Bend (r) Release (v) Vibrato

Stave 1:

E|-----------12-----------12------------12-----------12-----
B|-----------12-----------12------------12-----------12-----
G|-----------13-----2-----13-----11-----13-----2-----13-----
D|-----7-----14-----4-----14-----12-----14-----4-----14-----
A|-----7-----14-----4-----14-----12-----14-----4-----14-----
E|-----5-----12-----2-----12-----10-----12-----2-----12-----

Stave 2:

E|------------------9------9------
B|-----5-----10-----10-----9------
G|-----6-----9------9------9------
D|-----7-----9------11-----9------
A|-----------12-----9------11-----
E|-----7-----10------------0------

Stave 3:

E|-----0-----0-----0-----0-----------0-----0-----0-----
B|-----5-----5-----0-----5-----3-----5-----0-----5-----
G|-----6-----4-----2-----4-----2-----4-----2-----4-----
D|-----7-----7-----4-----6-----4-----6-----4-----6-----
A|-----------------4-----7-----5-----7-----4-----7-----
E|-----5-----4-----2-----0-----------0-----2-----0-----

Stave 4:

E|-----0-----0-----0-----
B|-----3-----5-----0-----
G|-----2-----4-----2-----
D|-----4-----6-----4-----
A|-----5-----7-----4-----
E|-----------0-----2-----

http://www.guitartabcreator.com
Guitar Tab Creator is intended to store guitar tab created through the tool. It currently does not support in-line text editing. Any text you place in here will be lost. If you need to comment on your tab, please use the "Tab Notes" section located below.