Sound will begin in 5 seconds

DO WHAT YOU LIKE

Chords
01234567891011121314151617181920212223
E
B
G
D
A
E
B
0 1 2 3 4 5 6 7 8 9 10 11 12 13 14 15 16 17 18 19 20 21 22 23
Song Science #1: How Pros Use 6 Chords to Write Hit Songs
(/) Slide Up  (\) Slide Down  (h) Hammer On  (p) Pull Off  (b) Bend (r) Release (v) Vibrato

Stave 1:

E|------------0-----0-----0-----------
B|-----8------3-----3-----3-----3-----
G|-----7------4-----0-----0-----0-----
D|-----9------5-----2-----0-----4-----
A|-----10-----------0-----2-----2-----
E|-----8------3-----------0-----0-----

Stave 2:

E|-----0-----------------0-----
B|-----3-----3-----0-----3-----
G|-----0-----0-----5-----0-----
D|-----2-----0-----5-----0-----
A|-----3-----2-----------2-----
E|-----------3-----5-----0-----

Stave 3:

E|-----------------7-----0------
B|-----3-----5-----8-----10-----
G|-----4-----4-----7-----11-----
D|-----5-----5-----9-----12-----
A|-----------3-----7------------
E|-----5-----------0-----10-----

Stave 4:

E|--------------------------------------------------------------------------------------------------------------------------0-----
B|--------------------------------------------------------------3-----------------------------------------------------------3-----
G|------------------7-----7-----7------------7-----7------------0-----------------0-----2-----0-----------4-----2-----0-----0-----
D|------------------7-----9-----7------------9-----7------------0-----------2-----------------------2-----------------------0-----
A|-----------10-----------------------10-----------------10-----5-----0-----------------------------------------------------2-----
E|-----8--------------------------------------------------------3-----------------------------------------------------------0-----

http://www.guitartabcreator.com
Guitar Tab Creator is intended to store guitar tab created through the tool. It currently does not support in-line text editing. Any text you place in here will be lost. If you need to comment on your tab, please use the "Tab Notes" section located below.