Sound will begin in 5 seconds

CARBON MONOXIDE

Chords
01234567891011121314151617181920212223
E
B
G
D
A
E
B
0 1 2 3 4 5 6 7 8 9 10 11 12 13 14 15 16 17 18 19 20 21 22 23
Song Science #1: How Pros Use 6 Chords to Write Hit Songs
(/) Slide Up  (\) Slide Down  (h) Hammer On  (p) Pull Off  (b) Bend (r) Release (v) Vibrato

Stave 1:

E|------------0-----0-----4-----
B|-----10-----5-----5-----5-----
G|-----9------6-----4-----4-----
D|-----11-----7-----6-----6-----
A|-----12-----7-----7-----4-----
E|-----10-----5-----0-----------

Stave 2:

E|-------------------------0-----
B|-----10-----9------5-----0-----
G|-----9------9------6-----2-----
D|-----11-----9------7-----4-----
A|-----12-----11-----7-----4-----
E|-----10-----0------5-----2-----

Stave 3:

E|-----0-----0-----0-----0-----
B|-----0-----7-----0-----5-----
G|-----6-----6-----2-----4-----
D|-----7-----7-----4-----6-----
A|-----------5-----4-----7-----
E|-----7-----------2-----0-----

http://www.guitartabcreator.com
Guitar Tab Creator is intended to store guitar tab created through the tool. It currently does not support in-line text editing. Any text you place in here will be lost. If you need to comment on your tab, please use the "Tab Notes" section located below.