The Rising Tide

01234567891011121314151617181920212223
E
B
G
D
A
E
B
0 1 2 3 4 5 6 7 8 9 10 11 12 13 14 15 16 17 18 19 20 21 22 23
(/) Slide Up  (\) Slide Down  (h) Hammer On  (p) Pull Off  (b) Bend (r) Release (v) Vibrato

Stave 1:

E|------------------0h3-1p0-----0---7---7--5---5--
B|-----------3h1-0----------3p0-------7------7----
G|--0--2--0---------------------------------------
D|------------------------------------------------
A|------------------0---------------0-------------
E|--0---------------------------------------------

E|--3---3--1--------------------------------------
B|----5----3---0h1-3\5/3h1--1h0-------------------
G|------------------------------2--0--2-----------
D|------------------------------------------------
A|-------------0----------------------0-----------
E|------------------------------------------------

E|-----------------------------------------------
B|-----------------------------------------------
G|-----------------------------------------------
D|-----------------------------------------------
A|-----------------------------------------------
E|-----------------------------------------------

E|-----------------------------------------------
B|-----------------------------------------------
G|-----------------------------------------------
D|-----------------------------------------------
A|-----------------------------------------------
E|-----------------------------------------------



							http://www.guitartabcreator.com
Chords

Instruments
{"strings":[[[],[],[],[],[],[]]],"numberofstrings":6,"notes":["E","B","G","D","A","E","B"],"capo":0,"stringnotes":["E4","B3","G3","D3","A2","E2"],"comments":["Stave 1:"],"timing":[[]],"timingvisible":false,"tabcounter":0,"stave":0,"totalstaves":1,"instrument":"6guitar","selectedtuning":"6_standard","version":"13"}

Member for

1 month 3 weeks
Submitted by TDugo on Thu, 2020-11-26 14:11