Velvet by KIRBY

Chords

01234567891011121314151617181920212223
E
B
G
D
A
E
B
0 1 2 3 4 5 6 7 8 9 10 11 12 13 14 15 16 17 18 19 20 21 22 23
(/) Slide Up  (\) Slide Down  (h) Hammer On  (p) Pull Off  (b) Bend (r) Release (v) Vibrato

(W|WW) Whole  (H|HH) Half  (Q|QQ) Quarter  (E|EE) 8th (S|SS) 16th  (T|TT) 32nd (X|XX) 64th

Verse Chords (Bb, Am, C, F):
t:  W  W  W  W  W  W  W  W  
E|--|--|--0--0--0--0--0--1--
B|--3--3--1--1--1--1--1--1--
G|--3--3--2--2--0--0--0--2--
D|--3--3--2--2--2--2--2--3--
A|--|--|--0--0--3--3--3--x--
E|--x--x--x--x--0--0--0--x--

Verse Tab:
t:  Q  E  E  Q  Q  Q  Q  Q  E  E  Q  Q  Q  Q  Q  E  E  Q  Q  Q  Q  Q  Q  Q  Q  Q  Q  
E|--------------5--------------0-----5--0-----------5-----8--5-----------5--6--5-----
B|-----3--4--3-----4--3-----1-----1--------1-----5-----5--------5-----5-----------3--
G|--3--------------------2--------------------5--------------------5-----------------
D|-----------------------------------------------------------------------------------
A|-----------------------------------------------------------------------------------
E|-----------------------------------------------------------------------------------

[maybe] Chorus:
t:  W  W  W  W  W  W  
E|--|--1--|--|--|--|--
B|--8--3--4--4--4--5--
G|--8--2--5--5--5--6--
D|--8--0--5--5--5--6--
A|--|--x--|--|--|--|--
E|--|--x--x--x--x--x--

							http://www.guitartabcreator.com
Tab Notes
Time signature is 3/4
genre
Instruments
{"strings":[[["|","|",0,0,0,0,0,1],[3,3,1,1,1,1,1,1],[3,3,2,2,0,0,0,2],[3,3,2,2,2,2,2,3],["|","|",0,0,3,3,3,"x0"],["x0","x0","x0","x0",0,0,0,"x0"]],[[".",".",".",".",5,".",".",".",".",0,".",5,0,".",".",".",5,".",8,5,".",".",".",5,6,5,"."],[".",3,4,3,".",4,3,".",1,".",1,".",".",1,".",5,".",5,".",".",5,".",5,".",".",".",3],[3,".",".",".",".",".",".",2,".",".",".",".",".",".",5,".",".",".",".",".",".",5,".",".",".",".","."],[".",".",".",".",".",".",".",".",".",".",".",".",".",".",".",".",".",".",".",".",".",".",".",".",".",".","."],[".",".",".",".",".",".",".",".",".",".",".",".",".",".",".",".",".",".",".",".",".",".",".",".",".",".","."],[".",".",".",".",".",".",".",".",".",".",".",".",".",".",".",".",".",".",".",".",".",".",".",".",".",".","."]],[["|",1,"|","|","|","|"],[8,3,4,4,4,5],[8,2,5,5,5,6],[8,0,5,5,5,6],["|","x0","|","|","|","|"],["|","x0","x0","x0","x0","x0"]]],"numberofstrings":6,"notes":["E","B","G","D","A","E","B"],"capo":0,"stringnotes":["E4","B3","G3","D3","A2","E2"],"comments":["Verse Chords (Bb, Am, C, F):","Verse Tab:","[maybe] Chorus:"],"timing":[["W","W","W","W","W","W","W","W","W","W","W","W","W","W","W","W","W","W","W","W","W","W","W","W","W","W","W","W"],["Q","E","E","Q","Q","Q","Q","Q","E","E","Q","Q","Q","Q","Q","E","E","Q","Q","Q","Q","Q","Q","Q","Q","Q","Q"],["W","W","W","W","W","W","W"]],"timingvisible":true,"tabcounter":6,"stave":2,"totalstaves":3,"instrument":"6guitar","selectedtuning":"6_standard","version":"13"}

Member for

3 months 1 week
About Me
love the acoustic guitar.
Submitted by tclct on Thu, 2020-08-06 19:21