Sound will begin in 5 seconds

the rain song

Chords
01234567891011121314151617181920212223
E
B
G
D
A
E
B
0 1 2 3 4 5 6 7 8 9 10 11 12 13 14 15 16 17 18 19 20 21 22 23
Song Science #1: How Pros Use 6 Chords to Write Hit Songs
(/) Slide Up  (\) Slide Down  (h) Hammer On  (p) Pull Off  (b) Bend (r) Release (v) Vibrato

Stave 1:

E|--0-----------------0--0--0--0-----0-----------------0--0--0--0--0--0-----0--0--0--0-----0--0--0--0--0--
B|-----7--------------7--7--7--7--------6--------------6--6--6--6--6--6-----5--5--3--2-----3--3--3--3--3--
G|--------0-----------0--0--0--0-----------0-----------0--0--0--0--0--0-----4--4--4--4-----3--3--3--3--3--
D|-----------7--------7--7--7--7--------------6--------6--6--6--6--6--6-----5--5--5--5-----3--3--3--3--3--
A|--------------0-----0--0--0--0-----------------0-----0--0--0--0--0--0--0--0--0--0--0-----0--0--0--0--0--
E|-----------------0--0--0--0--0--------------------0--0--0--0--0--0--0-----0--0--0--0-----0--0--0--0--0--

Stave 2:

E|--------------------------0---0--0---0---0--0--0-----0---0--0---0---0--0--0-----0---0------0---0---0---0---
B|--------------------------11--9--12--11--4--9--9-----11--9--12--11--4--9--9-----10--9------9---9---9---9---
G|--------2--4--4-----------0---0--0---0---0--0--0-----0---0--0---0---0--0--0-----11--10-----10--10--10--10--
D|--------2--2--2-----------11--9--12--11--4--9--9-----11--9--12--11--4--9--9-----12--11-----11--11--11--11--
A|--0--0--0--0--0--0--0--0--0---0--0---0---0--8--8-----0---0--0---0---0--8--8-----0---0------0---0---0---0---
E|--------------------------0---0--0---0---0--0--0-----0---0--0---0---0--0--0-----0---0------0---0---0---0---

Stave 3:

E|--0---0---0---0---0------5--5--5-----5--5--5-----0---0------0---0---0---0------0---0---0---0---0---
B|--9---9---9---9---9------0--0--0-----0--0--0-----10--9------9---9---9---9------9---9---9---9---9---
G|--10--10--10--10--10-----0--0--0-----0--0--0-----11--10-----10--10--10--10-----10--10--10--10--10--
D|--10--10--10--10--10-----5--4--0--4--5--4--0-----12--11-----11--11--11--11-----10--10--10--10--10--
A|--0---0---0---0---0------0--0--0-----0--0--0-----0---0------0---0---0---0------0---0---0---0---0---
E|--0---0---0---0---0------0--0--0-----0--0--0-----0---0------0---0---0---0------0---0---0---0---0---

Stave 4:

E|--5--5--5-----5--5--5--------------------------------------------------
B|--0--0--0-----0--0--0--------------------------------------------------
G|--0--0--0-----0--0--0-----2--4--4-----2--4--4-----2--4--4-----2--4--4--
D|--5--4--0--4--5--4--0-----2--2--2-----3--3--3-----4--4--4-----5--5--5--
A|--0--0--0-----0--0--0-----0--0--0-----0--0--0-----0--0--0-----0--0--0--
E|--0--0--0-----0--0--0--------------------------------------------------

Stave 5:

E|-----------------5--5--5--5--5-----------------4--4--4--4-----0--2--0--2--0-----------0--2--0--2--0--------
B|--------------4-----4--4--4--4--------------0-----0--0--0-----0--------------0--------0--------------0-----
G|-----------4--------4--4--4--4-----------2--------2--2--2-----0-----------------0-----0-----------------0--
D|--------0-----------0--0--0--0--------2-----------2--2--2-----0--------------------0--0--------------------
A|-----0--------------0--0--0--0-----0--------------0--0--0-----2-----------------------2--------------------
E|--0-----------------0--0--0--0--0-----------------0--0--0-----0-----------------------0--------------------

Stave 6:

E|-----------
B|-----------
G|--2--4--4--
D|--2--2--2--
A|--0--0--0--
E|-----------

Stave 7:

E|-----------------5--5--5--5--5-----------------4--4--4--4-----------------5--5--5--5--5--
B|--------------4-----4--4--4--4--------------0-----0--0--0--------------4-----4--4--4--4--
G|-----------4--------4--4--4--4-----------2--------2--2--2-----------4--------4--4--4--4--
D|--------0-----------0--0--0--0--------2-----------2--2--2--------0-----------0--0--0--0--
A|-----0--------------0--0--0--0-----0--------------0--0--0-----0--------------0--0--0--0--
E|--0-----------------0--0--0--0--0-----------------0--0--0--0-----------------0--0--0--0--

Stave 8:

E|-----------------7--7--7--7-----------------5--5--5--5--5-----------------4--4--4--4--
B|--------------5-----5--5--5--------------4-----4--4--4--4--------------0-----0--0--0--
G|-----------5--------5--5--5-----------4--------4--4--4--4-----------2--------2--2--2--
D|--------0-----------0--0--0--------0-----------0--0--0--0--------2-----------2--2--2--
A|-----0--------------0--0--0-----0--------------0--0--0--0-----0--------------0--0--0--
E|--0-----------------0--0--0--0-----------------0--0--0--0--0-----------------0--0--0--

http://www.guitartabcreator.com
Guitar Tab Creator is intended to store guitar tab created through the tool. It currently does not support in-line text editing. Any text you place in here will be lost. If you need to comment on your tab, please use the "Tab Notes" section located below.