Sound will begin in 5 seconds

New Song

Chords
01234567891011121314151617181920212223
E
B
G
D
A
E
B
0 1 2 3 4 5 6 7 8 9 10 11 12 13 14 15 16 17 18 19 20 21 22 23
Song Science #1: How Pros Use 6 Chords to Write Hit Songs
(/) Slide Up  (\) Slide Down  (h) Hammer On  (p) Pull Off  (b) Bend (r) Release (v) Vibrato

Stave 1:

E|----------------------------------------------------------------------------------------------------
B|----------------------------------------------------------------------------------------------------
G|--10------------------------------10------------------------------------------------12--12--10--10--
D|------12--12--12--12--12--10--10------12--12--12--12--12--10--10--9--9--9--9--9--9------------------
A|----------------------------------------------------------------------------------------------------
E|----------------------------------------------------------------------------------------------------

Stave 2:

E|----------12--12--12--12--
B|----------12--12--12--12--
G|--10--10--12--12--12--12--
D|--------------------------
A|--------------------------
E|--------------------------

Stave 3:

E|--10--10--10--10--10--10--12--12--10--10--10--10--12--0--12--12--10--10--10--10--10--10--10--10--9--
B|--10--10--10--10--10--10--12--12--10--10--10--10--12--0--12--12--10--10--10--10--10--10--10--10--9--
G|--10--10--10--10--10--10--12--12--10--10--10--10--12--0--12--12--10--10--10--10--10--10--10--10--9--
D|---------------------------------------------------------12--12--10--10--10--10--10--10--10--10--9--
A|----------------------------------------------------------------------------------------------------
E|----------------------------------------------------------------------------------------------------

Stave 4:

E|--9--9--9--12--12--12--12--10--10--10--10--10--10--12--12--10--10--10--10--12--0--12--12------------
B|--9--9--9--12--12--12--12--10--10--10--10--10--10--12--12--10--10--10--10--12--0--12--12------------
G|--9--9--9--12--12--12--12--10--10--10--10--10--10--12--12--10--10--10--10--12--0--12--12--10v--12v--
D|--9--9--9--12--12--12--12---------------------------------------------------------12--12------------
A|----------------------------------------------------------------------------------------------------
E|----------------------------------------------------------------------------------------------------

Stave 5:

E|--------------------------------------------------------------------------------------
B|-----------7--------------------5--------------------7--------------------6-----------
G|-----7--------7-----7-----5--------5-----5-----7--------7-----7-----7--------7-----7--
D|--7-----7--------7-----5-----5--------5-----9-----9--------9-----9-----9--------9-----
A|--------------------------------------------------------------------------------------
E|--------------------------------------------------------------------------------------

Stave 6:

E|--10--10--10--10---------10--10--10--10--10--10--10---------10--10--10--10--10--10--10-----------------
B|--10--10--10--10---------10--10--10--10--10--10--10---------10--10--10--10--10--10--10-----------------
G|--10--10--10--10---------10--10--10--10--10--10--10---------10--10--10--10--10--10--10--10--12--12b14--
D|--10--12--12--12--10h12--10--12--12--10--12--12--12--10h12--10--12--12--10--12--12--12-----------------
A|-------------------------------------------------------------------------------------------------------
E|-------------------------------------------------------------------------------------------------------

Stave 7:

E|-------------------------------------------------------------13--15--15b17--15--20b22--
B|-----------------------------------15b17--15b17--15--13--15----------------------------
G|--12v--12v--12v--12v--12v--12v---------------------------------------------------------
D|---------------------------------------------------------------------------------------
A|---------------------------------------------------------------------------------------
E|---------------------------------------------------------------------------------------

Stave 8:

E|--
B|--
G|--
D|--
A|--
E|--

http://www.guitartabcreator.com
Guitar Tab Creator is intended to store guitar tab created through the tool. It currently does not support in-line text editing. Any text you place in here will be lost. If you need to comment on your tab, please use the "Tab Notes" section located below.