Stairway To Heaven

Chords

01234567891011121314151617181920212223
E
B
G
D
A
E
B
0 1 2 3 4 5 6 7 8 9 10 11 12 13 14 15 16 17 18 19 20 21 22 23
(/) Slide Up  (\) Slide Down  (h) Hammer On  (p) Pull Off  (b) Bend (r) Release (v) Vibrato

Stave 1:

E|-------5-----------------------|----------|--------8--8--|--8--10--8--5--5--------8--10--|--8-----------------|--
B|----------8--5-----------------|----------|--8b10--------|------------------8\10---------|-----10--8------8v--|--
G|--7b9-----------7--5-----7--5--|----------|--------------|-------------------------------|------------10------|--
D|----------------------7--------|--7--5\3--|--------------|-------------------------------|--------------------|--
A|-------------------------------|----------|--------------|-------------------------------|--------------------|--
E|-------------------------------|----------|--------------|-------------------------------|--------------------|--

Stave 2:

E|----------5-----------|--------------------------------------|--5--------------------------------------|--
B|-------5-----8--5-----|--------------------------------------|-----8--5--------------------------------|--
G|--7b9--------------7--|--5-----7--5-----------------5--5--5--|-----------7--5-----7--5-----------------|--
D|----------------------|-----7--------7--5-----5--7-----------|-----------------7--------7--5--7--5-----|--
A|----------------------|--------------------7-----------------|--------------------------------------8--|--
E|----------------------|--------------------------------------|-----------------------------------------|--

Stave 3:

E|------------------------------------------------------------|-------------------------15b17--15--13----------------|--
B|--------------------------------------------------------13--|--15b17--15--13--15--13-----------------15b17r15--13--|--
G|-------------10-------------------------12------12--14------|------------------------------------------------------|--
D|---------10------12--10------10--12h14------14--------------|------------------------------------------------------|--
A|--10\12------------------12---------------------------------|------------------------------------------------------|--
E|------------------------------------------------------------|------------------------------------------------------|--

Stave 4:

E|------|--------------------------------------------------------------------------------------|--
B|------|--13--15b17r15p13------13--15b17r15p13------13--15b17r15p13------13--15b17r15p13------|--
G|--14--|-------------------14-------------------14-------------------14-------------------14--|--
D|------|--------------------------------------------------------------------------------------|--
A|------|--------------------------------------------------------------------------------------|--
E|------|--------------------------------------------------------------------------------------|--

Stave 5:

E|--------------------------------------------------------------------------------------|-----------------------
B|--13--15b17r15p13------13--15b17r15p13------13--15b17r15p13------13--15b17r15p13------|--13--15b17r15p13------
G|-------------------14-------------------14-------------------14-------------------14--|-------------------14--
D|--------------------------------------------------------------------------------------|-----------------------
A|--------------------------------------------------------------------------------------|-----------------------
E|--------------------------------------------------------------------------------------|-----------------------

Stave 6:

E|---------------------------15b17--|--12--15--12---------------------------------------15--|--------------------|--
B|--13--15b17r15p13------13---------|--------------15p13------13--15p13------13--15b17------|--15b17r15p13-------|--
G|-------------------14-------------|---------------------14-------------14-----------------|---------------14v--|--
D|----------------------------------|-------------------------------------------------------|--------------------|--
A|----------------------------------|-------------------------------------------------------|--------------------|--
E|----------------------------------|-------------------------------------------------------|--------------------|--

							http://www.guitartabcreator.com
Instruments
{"strings":[[[".",".",".",5,".",".",".",".",".",".",".","|",".",".",".",".","|",".",".",".",8,8,"|",8,10,8,5,5,".",".",".",8,10,"|",8,".",".",".",".",".","|"],[".",".",".",".",8,5,".",".",".",".",".","|",".",".",".",".","|",8,"b",10,".",".","|",".",".",".",".",".",8,"\\",10,".",".","|",".",10,8,".",8,"v","|"],[7,"b",9,".",".",".",7,5,".",7,5,"|",".",".",".",".","|",".",".",".",".",".","|",".",".",".",".",".",".",".",".",".",".","|",".",".",".",10,".",".","|"],[".",".",".",".",".",".",".",".",7,".",".","|",7,5,"\\",3,"|",".",".",".",".",".","|",".",".",".",".",".",".",".",".",".",".","|",".",".",".",".",".",".","|"],[".",".",".",".",".",".",".",".",".",".",".","|",".",".",".",".","|",".",".",".",".",".","|",".",".",".",".",".",".",".",".",".",".","|",".",".",".",".",".",".","|"],[".",".",".",".",".",".",".",".",".",".",".","|",".",".",".",".","|",".",".",".",".",".","|",".",".",".",".",".",".",".",".",".",".","|",".",".",".",".",".",".","|"]],[[".",".",".",".",5,".",".",".","|",".",".",".",".",".",".",".",".",".",".",".",".","|",5,".",".",".",".",".",".",".",".",".",".",".",".","|"],[".",".",".",5,".",8,5,".","|",".",".",".",".",".",".",".",".",".",".",".",".","|",".",8,5,".",".",".",".",".",".",".",".",".",".","|"],[7,"b",9,".",".",".",".",7,"|",5,".",7,5,".",".",".",".",".",5,5,5,"|",".",".",".",7,5,".",7,5,".",".",".",".",".","|"],[".",".",".",".",".",".",".",".","|",".",7,".",".",7,5,".",5,7,".",".",".","|",".",".",".",".",".",7,".",".",7,5,7,5,".","|"],[".",".",".",".",".",".",".",".","|",".",".",".",".",".",".",7,".",".",".",".",".","|",".",".",".",".",".",".",".",".",".",".",".",".",8,"|"],[".",".",".",".",".",".",".",".","|",".",".",".",".",".",".",".",".",".",".",".",".","|",".",".",".",".",".",".",".",".",".",".",".",".",".","|"]],[[".",".",".",".",".",".",".",".",".",".",".",".",".",".",".",".",".","|",".",".",".",".",".",".",".",15,"b",17,15,13,".",".",".",".",".",".","|"],[".",".",".",".",".",".",".",".",".",".",".",".",".",".",".",".",13,"|",15,"b",17,15,13,15,13,".",".",".",".",".",15,"b",17,"r",15,13,"|"],[".",".",".",".",10,".",".",".",".",".",".",".",12,".",12,14,".","|",".",".",".",".",".",".",".",".",".",".",".",".",".",".",".",".",".",".","|"],[".",".",".",10,".",12,10,".",10,12,"h",14,".",14,".",".",".","|",".",".",".",".",".",".",".",".",".",".",".",".",".",".",".",".",".",".","|"],[10,"\\",12,".",".",".",".",12,".",".",".",".",".",".",".",".",".","|",".",".",".",".",".",".",".",".",".",".",".",".",".",".",".",".",".",".","|"],[".",".",".",".",".",".",".",".",".",".",".",".",".",".",".",".",".","|",".",".",".",".",".",".",".",".",".",".",".",".",".",".",".",".",".",".","|"]],[[".","|",".",".",".",".",".",".",".",".",".",".",".",".",".",".",".",".",".",".",".",".",".",".",".",".",".",".",".",".",".",".",".",".",".",".",".",".","|"],[".","|",13,15,"b",17,"r",15,"p",13,".",13,15,"b",17,"r",15,"p",13,".",13,15,"b",17,"r",15,"p",13,".",13,15,"b",17,"r",15,"p",13,".","|"],[14,"|",".",".",".",".",".",".",".",".",14,".",".",".",".",".",".",".",".",14,".",".",".",".",".",".",".",".",14,".",".",".",".",".",".",".",".",14,"|"],[".","|",".",".",".",".",".",".",".",".",".",".",".",".",".",".",".",".",".",".",".",".",".",".",".",".",".",".",".",".",".",".",".",".",".",".",".",".","|"],[".","|",".",".",".",".",".",".",".",".",".",".",".",".",".",".",".",".",".",".",".",".",".",".",".",".",".",".",".",".",".",".",".",".",".",".",".",".","|"],[".","|",".",".",".",".",".",".",".",".",".",".",".",".",".",".",".",".",".",".",".",".",".",".",".",".",".",".",".",".",".",".",".",".",".",".",".",".","|"]],[[".",".",".",".",".",".",".",".",".",".",".",".",".",".",".",".",".",".",".",".",".",".",".",".",".",".",".",".",".",".",".",".",".",".",".",".","|",".",".",".",".",".",".",".",".","."],[13,15,"b",17,"r",15,"p",13,".",13,15,"b",17,"r",15,"p",13,".",13,15,"b",17,"r",15,"p",13,".",13,15,"b",17,"r",15,"p",13,".","|",13,15,"b",17,"r",15,"p",13,"."],[".",".",".",".",".",".",".",".",14,".",".",".",".",".",".",".",".",14,".",".",".",".",".",".",".",".",14,".",".",".",".",".",".",".",".",14,"|",".",".",".",".",".",".",".",".",14],[".",".",".",".",".",".",".",".",".",".",".",".",".",".",".",".",".",".",".",".",".",".",".",".",".",".",".",".",".",".",".",".",".",".",".",".","|",".",".",".",".",".",".",".",".","."],[".",".",".",".",".",".",".",".",".",".",".",".",".",".",".",".",".",".",".",".",".",".",".",".",".",".",".",".",".",".",".",".",".",".",".",".","|",".",".",".",".",".",".",".",".","."],[".",".",".",".",".",".",".",".",".",".",".",".",".",".",".",".",".",".",".",".",".",".",".",".",".",".",".",".",".",".",".",".",".",".",".",".","|",".",".",".",".",".",".",".",".","."]],[[".",".",".",".",".",".",".",".",".",".",15,"b",17,"|",12,15,12,".",".",".",".",".",".",".",".",".",".",".",".",".",15,"|",".",".",".",".",".",".",".",".",".","|"],[13,15,"b",17,"r",15,"p",13,".",13,".",".",".","|",".",".",".",15,"p",13,".",13,15,"p",13,".",13,15,"b",17,".","|",15,"b",17,"r",15,"p",13,".",".","|"],[".",".",".",".",".",".",".",".",14,".",".",".",".","|",".",".",".",".",".",".",14,".",".",".",".",14,".",".",".",".",".","|",".",".",".",".",".",".",".",14,"v","|"],[".",".",".",".",".",".",".",".",".",".",".",".",".","|",".",".",".",".",".",".",".",".",".",".",".",".",".",".",".",".",".","|",".",".",".",".",".",".",".",".",".","|"],[".",".",".",".",".",".",".",".",".",".",".",".",".","|",".",".",".",".",".",".",".",".",".",".",".",".",".",".",".",".",".","|",".",".",".",".",".",".",".",".",".","|"],[".",".",".",".",".",".",".",".",".",".",".",".",".","|",".",".",".",".",".",".",".",".",".",".",".",".",".",".",".",".",".","|",".",".",".",".",".",".",".",".",".","|"]]],"numberofstrings":6,"notes":["E","B","G","D","A","E","B"],"capo":0,"stringnotes":["E4","B3","G3","D3","A2","E2"],"comments":["Stave 1:","Stave 2:","Stave 3:","Stave 4:","Stave 5:","Stave 6:"],"timing":[["W",null,"W","W","W","W","W","W","W","W","W","W","W","W","W","W",null,"W",null,"W","W","W",null,"W","W","W","W","W","W",null,"W","W","W",null,"W","W","W","W","W"],["W",null,"W","W","W","W","W","W",null,"W","W","W","W","W","W","W","W","W","W","W","W",null,"W","W","W","W","W","W","W","W","W","W","W","W","W"],["W",null,"W","W","W","W","W","W","W","W",null,"W","W","W","W","W","W",null,"W",null,"W","W","W","W","W","W",null,"W","W","W","W",null,"W",null,"W","W"],["W",null,"W","W",null,"W",null,"W",null,"W","W","W","W",null,"W",null,"W",null,"W","W","W","W",null,"W",null,"W",null,"W","W","W","W",null,"W",null,"W",null,"W","W"],["W","W",null,"W",null,"W",null,"W","W","W","W",null,"W",null,"W",null,"W","W","W","W",null,"W",null,"W",null,"W","W","W","W",null,"W",null,"W",null,"W","W",null,"W","W",null,"W",null,"W",null,"W","W"],["W","W",null,"W",null,"W",null,"W","W","W","W",null,"W",null,"W","W","W","W",null,"W","W","W","W",null,"W","W","W","W",null,"W","W",null,"W",null,"W",null,"W",null,"W","W"]],"timingvisible":false,"tabcounter":42,"stave":5,"totalstaves":6,"instrument":"6guitar","selectedtuning":"6_standard","version":"13"}

Member for

1 month 4 weeks
Submitted by tau917 on Thu, 2020-05-28 14:27