Quist Backing Track in E minor

Chords

01234567891011121314151617181920212223
E
B
G
D
A
E
B
0 1 2 3 4 5 6 7 8 9 10 11 12 13 14 15 16 17 18 19 20 21 22 23
(/) Slide Up  (\) Slide Down  (h) Hammer On  (p) Pull Off  (b) Bend (r) Release (v) Vibrato

Stave 1:

E|----------------3v--|-------------------|--------------------------------|--
B|----------3--5------|-------8-----8--10b|--12----------------------------|--
G|-----3h4------------|--7/9-----9--------|------14b16--------------11/12--|--
D|--5-----------------|-------------------|-------------14--12--14---------|--
A|--------------------|-------------------|--------------------------------|--
E|--------------------|-------------------|--------------------------------|--

Stave 2:

E|------15-----------------------------|---------------------------------|--
B|--12------12--15b17--12--------------|---------------------------------|--
G|-------------------------14\12-------|--12--14b16--12--14/15v--15/16v--|--
D|--------------------------------14v--|---------------------------------|--
A|-------------------------------------|---------------------------------|--
E|-------------------------------------|---------------------------------|--

Stave 3:

E|----------15-------|-------|----------------------|-------|--
B|------17-----------|-------|------15--17b19--17v--|--17v--|--
G|--17----------16v--|--16v--|--16------------------|-------|--
D|-------------------|-------|----------------------|-------|--
A|-------------------|-------|----------------------|-------|--
E|-------------------|-------|----------------------|-------|--

							http://www.guitartabcreator.com
Instruments
{"strings":[[[".",".",".",".",".",".",3,"v","|",".",".",".",".",".",".",".",".","|",".",".",".",".",".",".",".",".",".",".","|"],[".",".",".",".",3,5,".",".","|",".",".",".",8,".",8,10,"b","|",12,".",".",".",".",".",".",".",".",".","|"],[".",3,"h",4,".",".",".",".","|",7,"/",9,".",9,".",".",".","|",".",14,"b",16,".",".",".",11,"/",12,"|"],[5,".",".",".",".",".",".",".","|",".",".",".",".",".",".",".",".","|",".",".",".",".",14,12,14,".",".",".","|"],[".",".",".",".",".",".",".",".","|",".",".",".",".",".",".",".",".","|",".",".",".",".",".",".",".",".",".",".","|"],[".",".",".",".",".",".",".",".","|",".",".",".",".",".",".",".",".","|",".",".",".",".",".",".",".",".",".",".","|"]],[[".",15,".",".",".",".",".",".",".",".",".",".","|",".",".",".",".",".",".",".",".",".",".",".",".",".","|"],[12,".",12,15,"b",17,12,".",".",".",".",".","|",".",".",".",".",".",".",".",".",".",".",".",".",".","|"],[".",".",".",".",".",".",".",14,"\\",12,".",".","|",12,14,"b",16,12,14,"/",15,"v",15,"/",16,"v","|"],[".",".",".",".",".",".",".",".",".",".",14,"v","|",".",".",".",".",".",".",".",".",".",".",".",".",".","|"],[".",".",".",".",".",".",".",".",".",".",".",".","|",".",".",".",".",".",".",".",".",".",".",".",".",".","|"],[".",".",".",".",".",".",".",".",".",".",".",".","|",".",".",".",".",".",".",".",".",".",".",".",".",".","|"]],[[".",".",15,".",".","|",".",".","|",".",".",".",".",".",".",".","|",".",".","|"],[".",17,".",".",".","|",".",".","|",".",15,17,"b",19,17,"v","|",17,"v","|"],[17,".",".",16,"v","|",16,"v","|",16,".",".",".",".",".",".","|",".",".","|"],[".",".",".",".",".","|",".",".","|",".",".",".",".",".",".",".","|",".",".","|"],[".",".",".",".",".","|",".",".","|",".",".",".",".",".",".",".","|",".",".","|"],[".",".",".",".",".","|",".",".","|",".",".",".",".",".",".",".","|",".",".","|"]]],"numberofstrings":6,"notes":["E","B","G","D","A","E","B"],"capo":0,"stringnotes":["E4","B3","G3","D3","A2","E2"],"comments":["Stave 1:","Stave 2:","Stave 3:"],"timing":[["W","W",null,"W","W","W","W",null,null,"W",null,"W","W","W","W","W",null,null,"W","W",null,"W","W","W","W","W",null,"W"],["W","W","W","W",null,"W","W","W",null,"W","W",null,null,"W","W",null,"W","W","W",null,"W",null,"W",null,"W"],["W","W","W","W",null,"W","W",null,null,"W","W","W",null,"W","W",null,null,"W"]],"timingvisible":false,"tabcounter":20,"stave":2,"totalstaves":3,"instrument":"6guitar","selectedtuning":"6_standard","version":"13"}

Member for

8 months 1 week
Submitted by tau917 on Sun, 2020-05-10 12:13