intro 2

Chords

01234567891011121314151617181920212223
E
B
G
D
A
E
B
0 1 2 3 4 5 6 7 8 9 10 11 12 13 14 15 16 17 18 19 20 21 22 23
(/) Slide Up  (\) Slide Down  (h) Hammer On  (p) Pull Off  (b) Bend (r) Release (v) Vibrato

line:1

E|----------------3v-----------------------------------
B|----------3--5-----------------8-----8--10b11r8v-----
G|-----3h4------------------7/9-----9------------------
D|--5--------------------------------------------------
A|-----------------------------------------------------
E|-----------------------------------------------------

line:3

E|-----------------------------------------------------------------------------------------------
B|-----------------------------------------------------------------------------------------------
G|---------12------12--14b14--12--------------11/12v-----14b12--14b12--14b12--14\15--15/16--16v--
D|--12/14------14-----------------14--12--14-----------------------------------------------------
A|-----------------------------------------------------------------------------------------------
E|-----------------------------------------------------------------------------------------------

line:4

E|----------15--------------------------------------
B|------17-------------------------15--17b17v--17v--
G|--17----------16-----16v-----16-------------------
D|--------------------------------------------------
A|--------------------------------------------------
E|--------------------------------------------------

							http://www.guitartabcreator.com
genre
Instruments
{"strings":[[[".",".",".",".",".",".",3,"v","_","_",".",".",".",".",".",".",".",".",".",".",".",".","_"],[".",".",".",".",3,5,".",".","_","_",".",".",".",8,".",8,10,"b",11,"r",8,"v","_"],[".",3,"h",4,".",".",".",".","_","_",7,"/",9,".",9,".",".",".",".",".",".",".","_"],[5,".",".",".",".",".",".",".","_","_",".",".",".",".",".",".",".",".",".",".",".",".","_"],[".",".",".",".",".",".",".",".","_","_",".",".",".",".",".",".",".",".",".",".",".",".","_"],[".",".",".",".",".",".",".",".","_","_",".",".",".",".",".",".",".",".",".",".",".",".","_"]],[[".",".",".",".",".",".",".",".",".",".",".",".",".",".",".",".",".","_",".",".",".",".",".",".",".",".",".",".",".",".",".",".",".",".","."],[".",".",".",".",".",".",".",".",".",".",".",".",".",".",".",".",".","_",".",".",".",".",".",".",".",".",".",".",".",".",".",".",".",".","."],[".",".",".",12,".",12,14,"b",14,12,".",".",".",11,"/",12,"v","_",14,"b",12,14,"b",12,14,"b",12,14,"\\",15,15,"/",16,16,"v"],[12,"/",14,".",14,".",".",".",".",".",14,12,14,".",".",".",".","_",".",".",".",".",".",".",".",".",".",".",".",".",".",".",".",".","."],[".",".",".",".",".",".",".",".",".",".",".",".",".",".",".",".",".","_",".",".",".",".",".",".",".",".",".",".",".",".",".",".",".",".","."],[".",".",".",".",".",".",".",".",".",".",".",".",".",".",".",".",".","_",".",".",".",".",".",".",".",".",".",".",".",".",".",".",".",".","."]],[[".",".",15,".","_",".",".","_",".",".",".",".",".",".",".","."],[".",17,".",".","_",".",".","_",".",15,17,"b",17,"v",17,"v"],[17,".",".",16,"_",16,"v","_",16,".",".",".",".",".",".","."],[".",".",".",".","_",".",".","_",".",".",".",".",".",".",".","."],[".",".",".",".","_",".",".","_",".",".",".",".",".",".",".","."],[".",".",".",".","_",".",".","_",".",".",".",".",".",".",".","."]]],"numberofstrings":6,"notes":["E","B","G","D","A","E","B"],"capo":0,"stringnotes":["E4","B3","G3","D3","A2","E2"],"comments":["line:1","line:3","line:4","Stave 4:"],"timing":[["W","W",null,"W","W","W","W",null,null,null,"W","W","W","W","W","W","W",null,"W",null,"W",null,null,null,"W","W",null,"W","W","W","W",null,"W","W","W","W",null,"W","W","W","W"],["W",null,"W","W","W","W","W",null,"W","W","W","W","W","W",null,"W",null,null,"W",null,"W","W",null,"W","W",null,"W","W",null,"W","W",null,"W","W"],["W","W","W","W",null,null,"W",null,null,null,"W","W","W",null,"W",null,"W"],[]],"timingvisible":false,"tabcounter":16,"stave":2,"totalstaves":3,"instrument":"6guitar","selectedtuning":"6_standard","version":"13"}

Member for

6 months 3 weeks
Submitted by tau917 on Thu, 2020-05-07 05:31