comfortably Numb

Chords

01234567891011121314151617181920212223
E
B
G
D
A
E
B
0 1 2 3 4 5 6 7 8 9 10 11 12 13 14 15 16 17 18 19 20 21 22 23
(/) Slide Up  (\) Slide Down  (h) Hammer On  (p) Pull Off  (b) Bend (r) Release (v) Vibrato

Stave 1:

E|--14v--|-----14b15r14--|-----------------|--------------------|-------|--
B|-------|---------------|--15b17--15--14--|--14----------------|-------|--
G|-------|---------------|-----------------|------14------------|-------|--
D|-------|---------------|-----------------|----------14v--\12--|--12v--|--
A|-------|---------------|-----------------|--------------------|-------|--
E|-------|---------------|-----------------|--------------------|-------|--

Stave 2:

E|--------14b15r14--|----------------|----------------------|---------|--
B|------------------|--15b17--15p14--|----------------------|---------|--
G|------------------|----------------|--14------------------|--9\12v--|--
D|------------------|----------------|------14b12--11--9\7--|---------|--
A|------------------|----------------|----------------------|---------|--
E|------------------|----------------|----------------------|---------|--

Stave 3:

E|-------------------|--------------|-------------------------|---------|--
B|-------------------|--------------|-------------------------|---------|--
G|--11--9--7v--11p9--|--9v--\7--7v--|--------9p7-----7--9/11--|--11b12--|--
D|-------------------|--------------|-------------9-----------|---------|--
A|-------------------|--------------|-------------------------|---------|--
E|-------------------|--------------|-------------------------|---------|--

Stave 4:

E|--15--14--12-------------|-------------|---------------|-----|-----------|--
B|--------------15p12------|-------------|---------------|-----|-----------|--
G|---------------------12--|-------------|---------------|-----|-----9\12--|--
D|-------------------------|--12v--10\9--|--9v--10--9\7--|--v--|--v--------|--
A|-------------------------|-------------|---------------|-----|-----------|--
E|-------------------------|-------------|---------------|-----|-----------|--

Stave 5:

E|--------------------|-------------|--
B|--------------------|-------------|--
G|--9b11--9b11r9--7v--|-------------|--
D|--------------------|--7/9\7--7v--|--
A|--------------------|-------------|--
E|--------------------|-------------|--

							http://www.guitartabcreator.com
Instruments
{"strings":[[[14,"v","|","_",14,"b",15,"r",14,"|",".",".",".",".",".","|",".",".",".",".",".",".","|",".",".","|"],[".",".","|","_",".",".",".",".",".","|",15,"b",17,15,14,"|",14,".",".",".",".",".","|",".",".","|"],[".",".","|","_",".",".",".",".",".","|",".",".",".",".",".","|",".",14,".",".",".",".","|",".",".","|"],[".",".","|","_",".",".",".",".",".","|",".",".",".",".",".","|",".",".",14,"v","\\",12,"|",12,"v","|"],[".",".","|","_",".",".",".",".",".","|",".",".",".",".",".","|",".",".",".",".",".",".","|",".",".","|"],[".",".","|","_",".",".",".",".",".","|",".",".",".",".",".","|",".",".",".",".",".",".","|",".",".","|"]],[["_","_",14,"b",15,"r",14,"|",".",".",".",".",".",".","|",".",".",".",".",".",".",".",".","|",".",".",".",".","|"],["_","_",".",".",".",".",".","|",15,"b",17,15,"p",14,"|",".",".",".",".",".",".",".",".","|",".",".",".",".","|"],["_","_",".",".",".",".",".","|",".",".",".",".",".",".","|",14,".",".",".",".",".",".",".","|",9,"\\",12,"v","|"],["_","_",".",".",".",".",".","|",".",".",".",".",".",".","|",".",14,"b",12,11,9,"\\",7,"|",".",".",".",".","|"],["_","_",".",".",".",".",".","|",".",".",".",".",".",".","|",".",".",".",".",".",".",".",".","|",".",".",".",".","|"],["_","_",".",".",".",".",".","|",".",".",".",".",".",".","|",".",".",".",".",".",".",".",".","|",".",".",".",".","|"]],[[".",".",".",".",".",".",".","|",".",".",".",".",".",".","|","_","_",".",".",".",".",".",".",".",".","|",".",".",".","|"],[".",".",".",".",".",".",".","|",".",".",".",".",".",".","|","_","_",".",".",".",".",".",".",".",".","|",".",".",".","|"],[11,9,7,"v",11,"p",9,"|",9,"v","\\",7,7,"v","|","_","_",9,"p",7,".",7,9,"/",11,"|",11,"b",12,"|"],[".",".",".",".",".",".",".","|",".",".",".",".",".",".","|","_","_",".",".",".",9,".",".",".",".","|",".",".",".","|"],[".",".",".",".",".",".",".","|",".",".",".",".",".",".","|","_","_",".",".",".",".",".",".",".",".","|",".",".",".","|"],[".",".",".",".",".",".",".","|",".",".",".",".",".",".","|","_","_",".",".",".",".",".",".",".",".","|",".",".",".","|"]],[[15,14,12,".",".",".",".","|",".",".",".",".",".","|",".",".",".",".",".",".","|",".","|",".",".",".",".","|"],[".",".",".",15,"p",12,".","|",".",".",".",".",".","|",".",".",".",".",".",".","|",".","|",".",".",".",".","|"],[".",".",".",".",".",".",12,"|",".",".",".",".",".","|",".",".",".",".",".",".","|",".","|",".",9,"\\",12,"|"],[".",".",".",".",".",".",".","|",12,"v",10,"\\",9,"|",9,"v",10,9,"\\",7,"|","v","|","v",".",".",".","|"],[".",".",".",".",".",".",".","|",".",".",".",".",".","|",".",".",".",".",".",".","|",".","|",".",".",".",".","|"],[".",".",".",".",".",".",".","|",".",".",".",".",".","|",".",".",".",".",".",".","|",".","|",".",".",".",".","|"]],[[".",".",".",".",".",".",".",".",".",".","|",".",".",".",".",".",".",".","|"],[".",".",".",".",".",".",".",".",".",".","|",".",".",".",".",".",".",".","|"],[9,"b",11,9,"b",11,"r",9,7,"v","|",".",".",".",".",".",".",".","|"],[".",".",".",".",".",".",".",".",".",".","|",7,"/",9,"\\",7,7,"v","|"],[".",".",".",".",".",".",".",".",".",".","|",".",".",".",".",".",".",".","|"],[".",".",".",".",".",".",".",".",".",".","|",".",".",".",".",".",".",".","|"]]],"numberofstrings":6,"notes":["E","B","G","D","A","E","B"],"capo":0,"stringnotes":["E4","B3","G3","D3","A2","E2"],"comments":["Stave 1:","Stave 2:","Stave 3:","Stave 4:","Stave 5:"],"timing":[[null,null,null,null,null,null,null,null,null,null,null,null,null,null,null,null,null,null,null,null,null,null,null,"W"],[null,null,"W",null,"W",null,"W",null,"W",null,"W","W",null,"W",null,"W","W",null,"W","W","W",null,"W",null,"W",null,"W"],["W","W","W","W","W","W","W",null,"W",null,null,"W","W",null,null,null,null,"W",null,"W","W","W","W",null,"W",null,"W",null,"W","W"],["W","W","W","W",null,"W","W",null,"W",null,"W",null,"W",null,"W",null,"W","W",null,"W",null,null,null,null,"W",null,"W",null,"W",null,"W","W",null,"W",null,"W","W"],["W",null,"W","W",null,"W",null,"W","W",null,null,"W",null,"W",null,"W","W"]],"timingvisible":false,"tabcounter":19,"stave":4,"totalstaves":5,"instrument":"6guitar","selectedtuning":"6_standard","version":"13"}

Member for

8 months 1 week
Submitted by tau917 on Wed, 2020-05-13 11:38