Unconscious

Chords

01234567891011121314151617181920212223
E
B
G
D
A
E
B
0 1 2 3 4 5 6 7 8 9 10 11 12 13 14 15 16 17 18 19 20 21 22 23
(/) Slide Up  (\) Slide Down  (h) Hammer On  (p) Pull Off  (b) Bend (r) Release (v) Vibrato

Stave 1:

E|-----------------------0-----------------------------------------------------------------------------0-----------
B|-----------------6-----------------------------------------------------------------------------6-----------------
G|--7--------------------------------------------------5--7--------------------------5-----------------------------
D|--0--------------------------------------------------0-----------------------------------------------------------
A|-----------------------------------------------------------------------------------------------------------------
D|-----------------------------------------------------------------------------------------------------------------
A|-----------------------------------------------------------------------------------------------------------------

Stave 2:

E|-----------0--------------0--------------0--------------0--------------0--------------0--------------0--------------0--------------0-----
B|-----6--------6-----6--------6-----6--------6-----6--------6-----6--------6-----6--------6-----6--------6-----6--------8-----8--------8--
G|--7-----7--------7-----7--------7-----7--------5-----5--------5-----5--------5-----5--------------5--------------5--------------5--------
D|--------------------------------------------------------------------------------------------8--------------8--------------8--------------
A|-----------------------------------------------------------------------------------------------------------------------------------------
D|-----------------------------------------------------------------------------------------------------------------------------------------
A|-----------------------------------------------------------------------------------------------------------------------------------------

Stave 3:

E|-----------0--------------0--------------0--------------0--------------0--------------0-----
B|-----7--------7-----7--------7-----7--------7-----6--------6-----6--------8-----8--------8--
G|--7-----7--------7-----7--------7-----7--------7-----7--------7-----7--------7-----7--------
D|--------------------------------------------------------------------------------------------
A|--------------------------------------------------------------------------------------------
D|--------------------------------------------------------------------------------------------
A|--------------------------------------------------------------------------------------------

Stave 4:

E|---------------------------------------------------------------------------------------------------------------
B|---------------------------------------------------------------------------------------------------------------
G|---------------------------------------------------------------------------------------------------------------
D|-------------0--10--12---------0--12--13---------0----------0------0------17-------------20-------------0--22--
A|---------------------------------------------------------------------------------------------------------------
D|--0--10--12-------------0--12-------------0--13-----13--16-----16-----17------17--19--0------0--19--20---------
A|---------------------------------------------------------------------------------------------------------------

Stave 5:

E|---------------------------------------------------------------------------------------------------------------
B|---------------------------------------------------------------------------------------------------------------
G|---------------------------------------------------------------------------------------------------------------
D|-------------0--10--12---------0--12--13---------0----------0------0------17-------------0---------------------
A|---------------------------------------------------------------------------------------------------------------
D|--0--10--12-------------0--13-------------0--13-----13--16-----16-----17------17--16--0-----16--13--0--13--10--
A|---------------------------------------------------------------------------------------------------------------

Stave 6:

E|-----------5--------------5--------------5--------------5--------------5--------------5--------------0--------------0--------------0--------------0--------------0-----
B|--------6--------------6--------------6--------------6--------------6--------------6--------------6--------------6--------------6--------------6--------------6--------
G|-----------------------------------------------------------------------------------------------------------------------------------------------------------------------
D|--7--------------7--------------7--------------7--------------7--------------7--------------7--------------7--------------7--------------7--------------7--------------
A|--0--------------------------------------------------------------------------------------------------------------------------------------------------------------------
D|--0--------------------------------------------------------------------------------------------------------------------------------------------------------------------
A|-----------------------------------------------------------------------------------------------------------------------------------------------------------------------

Stave 7:

E|-----------0--------------0--------------0--------------0--------------0--------------0--------
B|--------6--------------6--------------6--------------6--------------6--------------6-----------
G|-----------------------------------------------------------------------------------------------
D|--7--------------7--------------7--------------7--------------7--------------7-----------------
A|-----------------------------------------------------------------------------------------------
D|-----------------------------------------------------------------------------------------------
A|-----------------------------------------------------------------------------------------------

Stave 8:

E|--------------------------0-----------------------------0-----------------------------0-----
B|-----------6-----------------------------6-----------------------------6--------------------
G|--------5--------------5--------------5--------------5--------------5--------------5--------
D|--7--------------7--------------7--------------7--------------7--------------7--------------
A|--------------------------------------------------------------------------------------------
D|--------------------------------------------------------------------------------------------
A|--------------------------------------------------------------------------------------------

Stave 9:

E|--------------------------0-----------------------------0-----------------------------0-----
B|-----------6-----------------------------6-----------------------------8--------------------
G|--------5--------------5--------------5--------------5--------------5--------------5--------
D|--8--------------8--------------8--------------8--------------8--------------8--------------
A|--------------------------------------------------------------------------------------------
D|--------------------------------------------------------------------------------------------
A|--------------------------------------------------------------------------------------------

Stave 10:

E|----------------------------------------------------------------------------------------------------------------------------------
B|----------------------------------------------------------------------------------------------------------------------------------
G|----------------------------------------------------------------------------------------------------------------------------------
D|----------------------------------------------------------------------------------------------------------------------------------
A|--10----------------10-----------------------------------------------------10-----8--------------8--------------------------------
D|--10-----10--10-----10-----------------------------------------------------10-----8-----8--8-----8--------------------------------
A|--10-----10--10-----10-----------------------------------------------------10-----8-----8--8-----8--------------------------------

Stave 11:

E|--0---------------------------------------0---------------0-------------------------------------------------------------------0---------
B|--7--------------------------10-----------13--------------7--------------------------10--------------------------10-----------13--------
G|--0--------------------------10-----------12--------------0--------------------------10--------------5-----------10-----------12--------
D|--0--------------------------8------------10--------------0--------------------------8---------------9-----------8------------10--------
A|--9--------------------------8------------10--------------9--------------------------8---------------5-----------8------------10--------
D|--0--------------------------8------------10--------------0--------------------------8---------------5-----------8------------10--------
A|----------------------------------------------------------------------------------------------------------------------------------------

Stave 12:

E|--------------------------------------------------------------------------------------------------------------
B|---------------------------------------------------------------11---------------------------------------------
G|--------------------------------------------------------0--14-------------------------------0--14-------------
D|--------------------------------------------------------------------------------------------------------------
A|--15--------------------0--13--------------------0--13-------------------------------0--13---------13--0--10--
D|--------------------------------------------------------------------------------------------------------------
A|------0--12--13--0--10---------0--12--13--0--10--------------------0--12--13--0--10---------------------------

Stave 13:

E|---------------------------------------------------------------------------------------------------0--12------
B|---------------------------------------------------------------11---------------------------------------------
G|--------------------------------------------------------0--14-------------------------------0--14---------15--
D|--------------------------------------------------------------------------------------------------------------
A|--15--------------------0--13--------------------0--13-------------------------------0--13--------------------
D|--------------------------------------------------------------------------------------------------------------
A|------0--12--13--0--10---------0--12--13--0--10--------------------0--12--13--0--10---------------------------

Stave 14:

E|-------------------------------------------------------------------------------------------------------
B|-------------------------------------------------------------------------------------------------------
G|-------------------------------------------------------------------------------------------------------
D|-------------------------------------------------------------------------------------------------------
A|--15-----------------------13--------------------12-------------0--10--12---------0--12--13------------
D|-------------------------------------------------------------------------------------------------------
A|------0--0--0-----0--0---------0--0--0-----0--0------0--10--12-------------0--12-------------0--13--0--

Stave 15:

E|---------------------------------------------------------------------------------------------------------------
B|---------------------------------------------------------------------------------------------------------------
G|---------------------------------------------------------------------------------------------------------------
D|---------------------------------------------------------------------------------------------------------------
A|------------------------------------------------------------------------0--10--12---------0--12--13------------
D|---------------------------------------------------------------------------------------------------------------
A|--15--15--15--15-----0--0-----13--13--13--13-----0--0-----0-----10--12-------------0--12-------------0--13--0--

Stave 16:

E|------------------------------------------------------------------------------------------------------------
B|------------------------------------------------------------------------------------------------------------
G|------------------------------------------------------------------------------------------------------------
D|------------------------------------------------------------------------------------------------------------
A|----------------0--10--12---------0--12--13--------------------------0--10--12---------0--12--13------------
D|------------------------------------------------------------------------------------------------------------
A|--0-----10--12-------------0--12-------------0--13--0--0-----10--12-------------0--12-------------0--13--0--

Stave 17:

E|---------------------------------------------------------------------------------------------------------
B|---------------------------------------------------------------------------------------------------------
G|---------------------------------------------------------------------------------------------------------
D|---------------------------------------------------------------------------------------------------------
A|----------------0--10--12---------0--12--13--------------------------0--10--12---------0--8--7-----------
D|---------------------------------------------------------------------------------------------------------
A|--0-----10--12-------------0--12-------------0--13--0--0-----10--12-------------0--10-----------0--8--7--

Stave 18:

E|-----------------------------------------------------------------------------------------------
B|-----------------------------------------------------------------------------------------------
G|-----------------------------------------------------------------------------------------------
D|-----------------------------------------------------------------------------------------------
A|--------------------------------------------------------------------------------------------0--
D|--0-----0--0-----0-----0--0-----0-----0--0-----0-----0--0-----0-----0--0-----0-----0--0-----0--
A|--0-----0--0-----0-----0--0-----0-----0--0-----0-----0--0-----0-----0--0-----0-----0--0-----0--

Stave 19:

E|--------------------------------------------------------------------
B|--------------------------------------------------------------------
G|--------------------------------------------------------------------
D|-----------7-----------------7-----------------7-----------------7--
A|--0-----------------------------------------------------------------
D|--0-----------------0-----------------0-----------------0-----------
A|--------------------------------------------------------------------

Stave 20:

E|--------------------------------------------------------------------------------------------------------------------------------------------
B|--------------------------------------------------------------------------------------------------------------------------------------------
G|--------------------------------------------------------------------------------------------------------------------------------------------
D|-----------7-----------------7-----------------7-----------------7-----------------7-----------------7-----------------7-----------------7--
A|--------------------------------------------------------------------------------------------------------------------------------------------
D|--5-----------------5-----------------5-----------------5-----------------7-----------------7-----------------7-----------------7-----------
A|--------------------------------------------------------------------------------------------------------------------------------------------

Stave 21:

E|--------------------------------------------------------------------------
B|--------------------------------------------------------------------------
G|-----------------------------------------------------------------0--------
D|-----------7-----------------7-----------------7--------------------------
A|--------------------------------------------------------------------------
D|--0-----------------0-----------------0-----------------0-----------------
A|--------------------------------------------------------------------------

Stave 22:

E|--------------------------------------------------------------------------------------------------------------------------------------------------
B|--------------------------------------------------------------------------------------------------------------------------------------------------
G|--------------------------------------------------------------------------------------------------------------------------------------------------
D|-----------7-----------------7-----------------7-----------------7-----------------7-----------------7-----------------7-----------------7--------
A|--------------------------------------------------------------------------------------------------------------------------------------------------
D|--5-----------------5-----------------5-----------------5-----------------7-----------------7-----------------7-----------------7-----------------
A|--------------------------------------------------------------------------------------------------------------------------------------------------

Stave 23:

E|---------------------------------------------------------------------
B|---------------------------------------------------------------------
G|------------------------------------------------------------------0--
D|-----------7-----------------7-----------------7---------------------
A|---------------------------------------------------------------------
D|--8-----------------8-----------------8-----------------10-----------
A|---------------------------------------------------------------------

							http://www.guitartabcreator.com
Instruments
{"strings":[[[".","_","_","_","_",".","_",0,"_","_","_","_","_","_","_","_","_",".",".","_","_","_","_","_","_","_","_",".","_","_","_",".","_",0,"_","_","_"],[".","_","_","_","_",6,"_",".","_","_","_","_","_","_","_","_","_",".",".","_","_","_","_","_","_","_","_",".","_","_","_",6,"_",".","_","_","_"],[7,"_","_","_","_",".","_",".","_","_","_","_","_","_","_","_","_",5,7,"_","_","_","_","_","_","_","_",5,"_","_","_",".","_",".","_","_","_"],[0,"_","_","_","_",".","_",".","_","_","_","_","_","_","_","_","_",0,".","_","_","_","_","_","_","_","_",".","_","_","_",".","_",".","_","_","_"],[".","_","_","_","_",".","_",".","_","_","_","_","_","_","_","_","_",".",".","_","_","_","_","_","_","_","_",".","_","_","_",".","_",".","_","_","_"],[".","_","_","_","_",".","_",".","_","_","_","_","_","_","_","_","_",".",".","_","_","_","_","_","_","_","_",".","_","_","_",".","_",".","_","_","_"],[".","_","_","_","_",".","_",".","_","_","_","_","_","_","_","_","_",".",".","_","_","_","_","_","_","_","_",".","_","_","_",".","_",".","_","_","_"]],[[".",".",".",0,".",".",".",".",0,".",".",".",".",0,".",".",".",".",0,".",".",".",".",0,".",".",".",".",0,".",".",".",".",0,".",".",".",".",0,".",".",".",".",0,"."],[".",6,".",".",6,".",6,".",".",6,".",6,".",".",6,".",6,".",".",6,".",6,".",".",6,".",6,".",".",6,".",6,".",".",6,".",6,".",".",8,".",8,".",".",8],[7,".",7,".",".",7,".",7,".",".",7,".",7,".",".",5,".",5,".",".",5,".",5,".",".",5,".",5,".",".",".",".",5,".",".",".",".",5,".",".",".",".",5,".","."],[".",".",".",".",".",".",".",".",".",".",".",".",".",".",".",".",".",".",".",".",".",".",".",".",".",".",".",".",".",".",8,".",".",".",".",8,".",".",".",".",8,".",".",".","."],[".",".",".",".",".",".",".",".",".",".",".",".",".",".",".",".",".",".",".",".",".",".",".",".",".",".",".",".",".",".",".",".",".",".",".",".",".",".",".",".",".",".",".",".","."],[".",".",".",".",".",".",".",".",".",".",".",".",".",".",".",".",".",".",".",".",".",".",".",".",".",".",".",".",".",".",".",".",".",".",".",".",".",".",".",".",".",".",".",".","."],[".",".",".",".",".",".",".",".",".",".",".",".",".",".",".",".",".",".",".",".",".",".",".",".",".",".",".",".",".",".",".",".",".",".",".",".",".",".",".",".",".",".",".",".","."]],[[".",".",".",0,".",".",".",".",0,".",".",".",".",0,".",".",".",".",0,".",".",".",".",0,".",".",".",".",0,"."],[".",7,".",".",7,".",7,".",".",7,".",7,".",".",7,".",6,".",".",6,".",6,".",".",8,".",8,".",".",8],[7,".",7,".",".",7,".",7,".",".",7,".",7,".",".",7,".",7,".",".",7,".",7,".",".",7,".",7,".","."],[".",".",".",".",".",".",".",".",".",".",".",".",".",".",".",".",".",".",".",".",".",".",".",".",".",".",".",".",".","."],[".",".",".",".",".",".",".",".",".",".",".",".",".",".",".",".",".",".",".",".",".",".",".",".",".",".",".",".",".","."],[".",".",".",".",".",".",".",".",".",".",".",".",".",".",".",".",".",".",".",".",".",".",".",".",".",".",".",".",".","."],[".",".",".",".",".",".",".",".",".",".",".",".",".",".",".",".",".",".",".",".",".",".",".",".",".",".",".",".",".","."]],[[".",".",".",".",".",".",".",".",".",".",".",".",".",".",".",".",".",".",".",".",".",".",".",".",".",".",".",".",".","."],[".",".",".",".",".",".",".",".",".",".",".",".",".",".",".",".",".",".",".",".",".",".",".",".",".",".",".",".",".","."],[".",".",".",".",".",".",".",".",".",".",".",".",".",".",".",".",".",".",".",".",".",".",".",".",".",".",".",".",".","."],[".",".",".",0,10,12,".",".",0,12,13,".",".",0,".",".",0,".",0,".",17,".",".",".",20,".",".",".",0,22],[".",".",".",".",".",".",".",".",".",".",".",".",".",".",".",".",".",".",".",".",".",".",".",".",".",".",".",".",".","."],[0,10,12,".",".",".",0,12,".",".",".",0,13,".",13,16,".",16,".",17,".",17,19,0,".",0,19,20,".","."],[".",".",".",".",".",".",".",".",".",".",".",".",".",".",".",".",".",".",".",".",".",".",".",".",".",".",".",".",".","."]],[[".",".",".",".",".",".",".",".",".",".",".",".",".",".",".",".",".",".",".",".",".",".",".",".",".",".",".",".",".","."],[".",".",".",".",".",".",".",".",".",".",".",".",".",".",".",".",".",".",".",".",".",".",".",".",".",".",".",".",".","."],[".",".",".",".",".",".",".",".",".",".",".",".",".",".",".",".",".",".",".",".",".",".",".",".",".",".",".",".",".","."],[".",".",".",0,10,12,".",".",0,12,13,".",".",0,".",".",0,".",0,".",17,".",".",".",0,".",".",".",".","."],[".",".",".",".",".",".",".",".",".",".",".",".",".",".",".",".",".",".",".",".",".",".",".",".",".",".",".",".",".","."],[0,10,12,".",".",".",0,13,".",".",".",0,13,".",13,16,".",16,".",17,".",17,16,0,".",16,13,0,13,10],[".",".",".",".",".",".",".",".",".",".",".",".",".",".",".",".",".",".",".",".",".",".",".",".",".",".",".",".",".","."]],[[".","_",".",5,"_",".","_",".",5,"_",".","_",".",5,"_",".",".",".",5,"_",".",".",".",5,"_",".",".",".",5,"_",".","_",".",0,"_",".","_",".",0,"_",".","_",".",0,"_",".",".",".",0,"_",".","_",".",0,"_"],[".","_",6,".","_",".","_",6,".","_",".","_",6,".","_",".",".",6,".","_",".",".",6,".","_",".",".",6,".","_",".","_",6,".","_",".","_",6,".","_",".","_",6,".","_",".",".",6,".","_",".","_",6,".","_"],[".","_",".",".","_",".","_",".",".","_",".","_",".",".","_",".",".",".",".","_",".",".",".",".","_",".",".",".",".","_",".","_",".",".","_",".","_",".",".","_",".","_",".",".","_",".",".",".",".","_",".","_",".",".","_"],[7,"_",".",".","_",7,"_",".",".","_",7,"_",".",".","_",7,".",".",".","_",7,".",".",".","_",7,".",".",".","_",7,"_",".",".","_",7,"_",".",".","_",7,"_",".",".","_",7,".",".",".","_",7,"_",".",".","_"],[0,"_",".",".","_",".","_",".",".","_",".","_",".",".","_",".",".",".",".","_",".",".",".",".","_",".",".",".",".","_",".","_",".",".","_",".","_",".",".","_",".","_",".",".","_",".",".",".",".","_",".","_",".",".","_"],[0,"_",".",".","_",".","_",".",".","_",".","_",".",".","_",".",".",".",".","_",".",".",".",".","_",".",".",".",".","_",".","_",".",".","_",".","_",".",".","_",".","_",".",".","_",".",".",".",".","_",".","_",".",".","_"],[".","_",".",".","_",".","_",".",".","_",".","_",".",".","_",".",".",".",".","_",".",".",".",".","_",".",".",".",".","_",".","_",".",".","_",".","_",".",".","_",".","_",".",".","_",".",".",".",".","_",".","_",".",".","_"]],[[".","_",".",0,"_",".","_",".",0,"_",".","_",".",0,"_",".","_",".",0,"_",".","_",".",0,"_",".","_",".",0,"_","_"],[".","_",6,".","_",".","_",6,".","_",".","_",6,".","_",".","_",6,".","_",".","_",6,".","_",".","_",6,".","_","_"],[".","_",".",".","_",".","_",".",".","_",".","_",".",".","_",".","_",".",".","_",".","_",".",".","_",".","_",".",".","_","_"],[7,"_",".",".","_",7,"_",".",".","_",7,"_",".",".","_",7,"_",".",".","_",7,"_",".",".","_",7,"_",".",".","_","_"],[".","_",".",".","_",".","_",".",".","_",".","_",".",".","_",".","_",".",".","_",".","_",".",".","_",".","_",".",".","_","_"],[".","_",".",".","_",".","_",".",".","_",".","_",".",".","_",".","_",".",".","_",".","_",".",".","_",".","_",".",".","_","_"],[".","_",".",".","_",".","_",".",".","_",".","_",".",".","_",".","_",".",".","_",".","_",".",".","_",".","_",".",".","_","_"]],[[".","_",".",".","_",".","_",".",0,"_",".","_",".",".","_",".","_",".",0,"_",".","_",".",".","_",".","_",".",0,"_"],[".","_",".",6,"_",".","_",".",".","_",".","_",".",6,"_",".","_",".",".","_",".","_",".",6,"_",".","_",".",".","_"],[".","_",5,".","_",".","_",5,".","_",".","_",5,".","_",".","_",5,".","_",".","_",5,".","_",".","_",5,".","_"],[7,"_",".",".","_",7,"_",".",".","_",7,"_",".",".","_",7,"_",".",".","_",7,"_",".",".","_",7,"_",".",".","_"],[".","_",".",".","_",".","_",".",".","_",".","_",".",".","_",".","_",".",".","_",".","_",".",".","_",".","_",".",".","_"],[".","_",".",".","_",".","_",".",".","_",".","_",".",".","_",".","_",".",".","_",".","_",".",".","_",".","_",".",".","_"],[".","_",".",".","_",".","_",".",".","_",".","_",".",".","_",".","_",".",".","_",".","_",".",".","_",".","_",".",".","_"]],[[".","_",".",".","_",".","_",".",0,"_",".","_",".",".","_",".","_",".",0,"_",".","_",".",".","_",".","_",".",0,"_"],[".","_",".",6,"_",".","_",".",".","_",".","_",".",6,"_",".","_",".",".","_",".","_",".",8,"_",".","_",".",".","_"],[".","_",5,".","_",".","_",5,".","_",".","_",5,".","_",".","_",5,".","_",".","_",5,".","_",".","_",5,".","_"],[8,"_",".",".","_",8,"_",".",".","_",8,"_",".",".","_",8,"_",".",".","_",8,"_",".",".","_",8,"_",".",".","_"],[".","_",".",".","_",".","_",".",".","_",".","_",".",".","_",".","_",".",".","_",".","_",".",".","_",".","_",".",".","_"],[".","_",".",".","_",".","_",".",".","_",".","_",".",".","_",".","_",".",".","_",".","_",".",".","_",".","_",".",".","_"],[".","_",".",".","_",".","_",".",".","_",".","_",".",".","_",".","_",".",".","_",".","_",".",".","_",".","_",".",".","_"]],[[".","_",".",".","_",".","_","_","_","_","_","_","_","_","_","_","_","_","_","_","_","_","_",".","_",".","_",".",".","_",".","_","_","_","_","_","_","_","_","_","_"],[".","_",".",".","_",".","_","_","_","_","_","_","_","_","_","_","_","_","_","_","_","_","_",".","_",".","_",".",".","_",".","_","_","_","_","_","_","_","_","_","_"],[".","_",".",".","_",".","_","_","_","_","_","_","_","_","_","_","_","_","_","_","_","_","_",".","_",".","_",".",".","_",".","_","_","_","_","_","_","_","_","_","_"],[".","_",".",".","_",".","_","_","_","_","_","_","_","_","_","_","_","_","_","_","_","_","_",".","_",".","_",".",".","_",".","_","_","_","_","_","_","_","_","_","_"],[10,"_",".",".","_",10,"_","_","_","_","_","_","_","_","_","_","_","_","_","_","_","_","_",10,"_",8,"_",".",".","_",8,"_","_","_","_","_","_","_","_","_","_"],[10,"_",10,10,"_",10,"_","_","_","_","_","_","_","_","_","_","_","_","_","_","_","_","_",10,"_",8,"_",8,8,"_",8,"_","_","_","_","_","_","_","_","_","_"],[10,"_",10,10,"_",10,"_","_","_","_","_","_","_","_","_","_","_","_","_","_","_","_","_",10,"_",8,"_",8,8,"_",8,"_","_","_","_","_","_","_","_","_","_"]],[[0,"_","_","_","_","_","_","_","_",".","_","_","_",0,"_","_","_","_",0,"_","_","_","_","_","_","_","_",".","_","_","_","_",".","_","_","_",".","_","_","_",0,"_","_"],[7,"_","_","_","_","_","_","_","_",10,"_","_","_",13,"_","_","_","_",7,"_","_","_","_","_","_","_","_",10,"_","_","_","_",".","_","_","_",10,"_","_","_",13,"_","_"],[0,"_","_","_","_","_","_","_","_",10,"_","_","_",12,"_","_","_","_",0,"_","_","_","_","_","_","_","_",10,"_","_","_","_",5,"_","_","_",10,"_","_","_",12,"_","_"],[0,"_","_","_","_","_","_","_","_",8,"_","_","_",10,"_","_","_","_",0,"_","_","_","_","_","_","_","_",8,"_","_","_","_",9,"_","_","_",8,"_","_","_",10,"_","_"],[9,"_","_","_","_","_","_","_","_",8,"_","_","_",10,"_","_","_","_",9,"_","_","_","_","_","_","_","_",8,"_","_","_","_",5,"_","_","_",8,"_","_","_",10,"_","_"],[0,"_","_","_","_","_","_","_","_",8,"_","_","_",10,"_","_","_","_",0,"_","_","_","_","_","_","_","_",8,"_","_","_","_",5,"_","_","_",8,"_","_","_",10,"_","_"],[".","_","_","_","_","_","_","_","_",".","_","_","_",".","_","_","_","_",".","_","_","_","_","_","_","_","_",".","_","_","_","_",".","_","_","_",".","_","_","_",".","_","_"]],[[".",".",".",".",".",".",".",".",".",".",".",".",".",".",".",".",".",".",".",".",".",".",".",".",".",".",".",".",".","."],[".",".",".",".",".",".",".",".",".",".",".",".",".",".",".",".",".",11,".",".",".",".",".",".",".",".",".",".",".","."],[".",".",".",".",".",".",".",".",".",".",".",".",".",".",".",0,14,".",".",".",".",".",".",".",".",0,14,".",".","."],[".",".",".",".",".",".",".",".",".",".",".",".",".",".",".",".",".",".",".",".",".",".",".",".",".",".",".",".",".","."],[15,".",".",".",".",".",0,13,".",".",".",".",".",0,13,".",".",".",".",".",".",".",".",0,13,".",".",13,0,10],[".",".",".",".",".",".",".",".",".",".",".",".",".",".",".",".",".",".",".",".",".",".",".",".",".",".",".",".",".","."],[".",0,12,13,0,10,".",".",0,12,13,0,10,".",".",".",".",".",0,12,13,0,10,".",".",".",".",".",".","."]],[[".",".",".",".",".",".",".",".",".",".",".",".",".",".",".",".",".",".",".",".",".",".",".",".",".",".",".",0,12,"."],[".",".",".",".",".",".",".",".",".",".",".",".",".",".",".",".",".",11,".",".",".",".",".",".",".",".",".",".",".","."],[".",".",".",".",".",".",".",".",".",".",".",".",".",".",".",0,14,".",".",".",".",".",".",".",".",0,14,".",".",15],[".",".",".",".",".",".",".",".",".",".",".",".",".",".",".",".",".",".",".",".",".",".",".",".",".",".",".",".",".","."],[15,".",".",".",".",".",0,13,".",".",".",".",".",0,13,".",".",".",".",".",".",".",".",0,13,".",".",".",".","."],[".",".",".",".",".",".",".",".",".",".",".",".",".",".",".",".",".",".",".",".",".",".",".",".",".",".",".",".",".","."],[".",0,12,13,0,10,".",".",0,12,13,0,10,".",".",".",".",".",0,12,13,0,10,".",".",".",".",".",".","."]],[[".",".",".",".","_",".",".","_",".",".",".",".","_",".",".",".",".",".",".",".",".",".",".",".",".",".",".",".",".","."],[".",".",".",".","_",".",".","_",".",".",".",".","_",".",".",".",".",".",".",".",".",".",".",".",".",".",".",".",".","."],[".",".",".",".","_",".",".","_",".",".",".",".","_",".",".",".",".",".",".",".",".",".",".",".",".",".",".",".",".","."],[".",".",".",".","_",".",".","_",".",".",".",".","_",".",".",".",".",".",".",".",".",".",".",".",".",".",".",".",".","."],[15,".",".",".","_",".",".","_",13,".",".",".","_",".",".",12,".",".",".",0,10,12,".",".",0,12,13,".",".","."],[".",".",".",".","_",".",".","_",".",".",".",".","_",".",".",".",".",".",".",".",".",".",".",".",".",".",".",".",".","."],[".",0,0,0,"_",0,0,"_",".",0,0,0,"_",0,0,".",0,10,12,".",".",".",0,12,".",".",".",0,13,0]],[[".",".",".",".","_",".",".","_",".",".",".",".","_",".",".","_",".","_",".",".",".",".",".",".",".",".",".",".",".",".","."],[".",".",".",".","_",".",".","_",".",".",".",".","_",".",".","_",".","_",".",".",".",".",".",".",".",".",".",".",".",".","."],[".",".",".",".","_",".",".","_",".",".",".",".","_",".",".","_",".","_",".",".",".",".",".",".",".",".",".",".",".",".","."],[".",".",".",".","_",".",".","_",".",".",".",".","_",".",".","_",".","_",".",".",".",".",".",".",".",".",".",".",".",".","."],[".",".",".",".","_",".",".","_",".",".",".",".","_",".",".","_",".","_",".",".",0,10,12,".",".",0,12,13,".",".","."],[".",".",".",".","_",".",".","_",".",".",".",".","_",".",".","_",".","_",".",".",".",".",".",".",".",".",".",".",".",".","."],[15,15,15,15,"_",0,0,"_",13,13,13,13,"_",0,0,"_",0,"_",10,12,".",".",".",0,12,".",".",".",0,13,0]],[[".","_",".",".",".",".",".",".",".",".",".",".",".",".",".",".","_",".",".",".",".",".",".",".",".",".",".",".",".","."],[".","_",".",".",".",".",".",".",".",".",".",".",".",".",".",".","_",".",".",".",".",".",".",".",".",".",".",".",".","."],[".","_",".",".",".",".",".",".",".",".",".",".",".",".",".",".","_",".",".",".",".",".",".",".",".",".",".",".",".","."],[".","_",".",".",".",".",".",".",".",".",".",".",".",".",".",".","_",".",".",".",".",".",".",".",".",".",".",".",".","."],[".","_",".",".",0,10,12,".",".",0,12,13,".",".",".",".","_",".",".",0,10,12,".",".",0,12,13,".",".","."],[".","_",".",".",".",".",".",".",".",".",".",".",".",".",".",".","_",".",".",".",".",".",".",".",".",".",".",".",".","."],[0,"_",10,12,".",".",".",0,12,".",".",".",0,13,0,0,"_",10,12,".",".",".",0,12,".",".",".",0,13,0]],[[".","_",".",".",".",".",".",".",".",".",".",".",".",".",".",".","_",".",".",".",".",".",".",".",".",".",".",".",".","."],[".","_",".",".",".",".",".",".",".",".",".",".",".",".",".",".","_",".",".",".",".",".",".",".",".",".",".",".",".","."],[".","_",".",".",".",".",".",".",".",".",".",".",".",".",".",".","_",".",".",".",".",".",".",".",".",".",".",".",".","."],[".","_",".",".",".",".",".",".",".",".",".",".",".",".",".",".","_",".",".",".",".",".",".",".",".",".",".",".",".","."],[".","_",".",".",0,10,12,".",".",0,12,13,".",".",".",".","_",".",".",0,10,12,".",".",0,8,7,".",".","."],[".","_",".",".",".",".",".",".",".",".",".",".",".",".",".",".","_",".",".",".",".",".",".",".",".",".",".",".",".","."],[0,"_",10,12,".",".",".",0,12,".",".",".",0,13,0,0,"_",10,12,".",".",".",0,10,".",".",".",0,8,7]],[[".","_",".",".","_",".","_",".",".","_",".","_",".",".","_",".","_",".",".","_",".","_",".",".","_",".","_",".",".","_","."],[".","_",".",".","_",".","_",".",".","_",".","_",".",".","_",".","_",".",".","_",".","_",".",".","_",".","_",".",".","_","."],[".","_",".",".","_",".","_",".",".","_",".","_",".",".","_",".","_",".",".","_",".","_",".",".","_",".","_",".",".","_","."],[".","_",".",".","_",".","_",".",".","_",".","_",".",".","_",".","_",".",".","_",".","_",".",".","_",".","_",".",".","_","."],[".","_",".",".","_",".","_",".",".","_",".","_",".",".","_",".","_",".",".","_",".","_",".",".","_",".","_",".",".","_",0],[0,"_",0,0,"_",0,"_",0,0,"_",0,"_",0,0,"_",0,"_",0,0,"_",0,"_",0,0,"_",0,"_",0,0,"_",0],[0,"_",0,0,"_",0,"_",0,0,"_",0,"_",0,0,"_",0,"_",0,0,"_",0,"_",0,0,"_",0,"_",0,0,"_",0]],[[".","_","_",".","_","_",".","_","_",".","_","_",".","_","_",".","_","_",".","_","_","."],[".","_","_",".","_","_",".","_","_",".","_","_",".","_","_",".","_","_",".","_","_","."],[".","_","_",".","_","_",".","_","_",".","_","_",".","_","_",".","_","_",".","_","_","."],[".","_","_",7,"_","_",".","_","_",7,"_","_",".","_","_",7,"_","_",".","_","_",7],[0,"_","_",".","_","_",".","_","_",".","_","_",".","_","_",".","_","_",".","_","_","."],[0,"_","_",".","_","_",0,"_","_",".","_","_",0,"_","_",".","_","_",0,"_","_","."],[".","_","_",".","_","_",".","_","_",".","_","_",".","_","_",".","_","_",".","_","_","."]],[[".","_","_",".","_","_",".","_","_",".","_","_",".","_","_",".","_","_",".","_","_",".","_","_",".","_","_",".","_","_",".","_","_",".","_","_",".","_","_",".","_","_",".","_","_","."],[".","_","_",".","_","_",".","_","_",".","_","_",".","_","_",".","_","_",".","_","_",".","_","_",".","_","_",".","_","_",".","_","_",".","_","_",".","_","_",".","_","_",".","_","_","."],[".","_","_",".","_","_",".","_","_",".","_","_",".","_","_",".","_","_",".","_","_",".","_","_",".","_","_",".","_","_",".","_","_",".","_","_",".","_","_",".","_","_",".","_","_","."],[".","_","_",7,"_","_",".","_","_",7,"_","_",".","_","_",7,"_","_",".","_","_",7,"_","_",".","_","_",7,"_","_",".","_","_",7,"_","_",".","_","_",7,"_","_",".","_","_",7],[".","_","_",".","_","_",".","_","_",".","_","_",".","_","_",".","_","_",".","_","_",".","_","_",".","_","_",".","_","_",".","_","_",".","_","_",".","_","_",".","_","_",".","_","_","."],[5,"_","_",".","_","_",5,"_","_",".","_","_",5,"_","_",".","_","_",5,"_","_",".","_","_",7,"_","_",".","_","_",7,"_","_",".","_","_",7,"_","_",".","_","_",7,"_","_","."],[".","_","_",".","_","_",".","_","_",".","_","_",".","_","_",".","_","_",".","_","_",".","_","_",".","_","_",".","_","_",".","_","_",".","_","_",".","_","_",".","_","_",".","_","_","."]],[[".","_","_",".","_","_",".","_","_",".","_","_",".","_","_",".","_","_",".","_","_",".","_","_"],[".","_","_",".","_","_",".","_","_",".","_","_",".","_","_",".","_","_",".","_","_",".","_","_"],[".","_","_",".","_","_",".","_","_",".","_","_",".","_","_",".","_","_",".","_","_",0,"_","_"],[".","_","_",7,"_","_",".","_","_",7,"_","_",".","_","_",7,"_","_",".","_","_",".","_","_"],[".","_","_",".","_","_",".","_","_",".","_","_",".","_","_",".","_","_",".","_","_",".","_","_"],[0,"_","_",".","_","_",0,"_","_",".","_","_",0,"_","_",".","_","_",0,"_","_",".","_","_"],[".","_","_",".","_","_",".","_","_",".","_","_",".","_","_",".","_","_",".","_","_",".","_","_"]],[[".","_","_",".","_","_",".","_","_",".","_","_",".","_","_",".","_","_",".","_","_",".","_","_",".","_","_",".","_","_",".","_","_",".","_","_",".","_","_",".","_","_",".","_","_",".","_","_"],[".","_","_",".","_","_",".","_","_",".","_","_",".","_","_",".","_","_",".","_","_",".","_","_",".","_","_",".","_","_",".","_","_",".","_","_",".","_","_",".","_","_",".","_","_",".","_","_"],[".","_","_",".","_","_",".","_","_",".","_","_",".","_","_",".","_","_",".","_","_",".","_","_",".","_","_",".","_","_",".","_","_",".","_","_",".","_","_",".","_","_",".","_","_",".","_","_"],[".","_","_",7,"_","_",".","_","_",7,"_","_",".","_","_",7,"_","_",".","_","_",7,"_","_",".","_","_",7,"_","_",".","_","_",7,"_","_",".","_","_",7,"_","_",".","_","_",7,"_","_"],[".","_","_",".","_","_",".","_","_",".","_","_",".","_","_",".","_","_",".","_","_",".","_","_",".","_","_",".","_","_",".","_","_",".","_","_",".","_","_",".","_","_",".","_","_",".","_","_"],[5,"_","_",".","_","_",5,"_","_",".","_","_",5,"_","_",".","_","_",5,"_","_",".","_","_",7,"_","_",".","_","_",7,"_","_",".","_","_",7,"_","_",".","_","_",7,"_","_",".","_","_"],[".","_","_",".","_","_",".","_","_",".","_","_",".","_","_",".","_","_",".","_","_",".","_","_",".","_","_",".","_","_",".","_","_",".","_","_",".","_","_",".","_","_",".","_","_",".","_","_"]],[[".","_","_",".","_","_",".","_","_",".","_","_",".","_","_",".","_","_",".","_","_","."],[".","_","_",".","_","_",".","_","_",".","_","_",".","_","_",".","_","_",".","_","_","."],[".","_","_",".","_","_",".","_","_",".","_","_",".","_","_",".","_","_",".","_","_",0],[".","_","_",7,"_","_",".","_","_",7,"_","_",".","_","_",7,"_","_",".","_","_","."],[".","_","_",".","_","_",".","_","_",".","_","_",".","_","_",".","_","_",".","_","_","."],[8,"_","_",".","_","_",8,"_","_",".","_","_",8,"_","_",".","_","_",10,"_","_","."],[".","_","_",".","_","_",".","_","_",".","_","_",".","_","_",".","_","_",".","_","_","."]]],"numberofstrings":7,"notes":["E","B","G","D","A","D","A"],"capo":0,"stringnotes":["E3","B2","G2","D2","A1","D1","A0"],"comments":["Stave 1:","Stave 2:","Stave 3:","Stave 4:","Stave 5:","Stave 6:","Stave 7:","Stave 8:","Stave 9:","Stave 10:","Stave 11:","Stave 12:","Stave 13:","Stave 14:","Stave 15:","Stave 16:","Stave 17:","Stave 18:","Stave 19:","Stave 20:","Stave 21:","Stave 22:","Stave 23:"],"timing":[["W",null,null,null,null,"E",null,"E",null,null,null,null,null,null,null,null,null,"E","E",null,null,null,null,null,null,null,null,"E",null,null,null,"E",null,"E"],["W","W","W","W","W","W","W","W","W","W","W","W","W","W","W","W","W","W","W","W","W","W","W","W","W","W","W","W","W","W","W","W","W","W","W","W","W","W","W","W","W","W","W","W","W"],["W","W","W","W","W","W","W","W","W","W","W","W","W","W","W","W","W","W","W","W","W","W","W","W","W","W","W","W","W","W","W","W","W","W","W","W","W","W","W","W","W","W","W","W","W","W","W","W","W","W","W"],["W","W","W","W","W","W","W","W","W","W","W","W","W","W","W","W","W","W","W","W","W","W","W","W","W","W","W","W","W","W"],["W","W","W","W","W","W","W","W","W","W","W","W","W","W","W","W","W","W","W","W","W","W","W","W","W","W","W","W","W","W"],["W",null,"W","W",null,"W",null,"W","W",null,"W",null,"W","W",null,"W","W","W",null,"W","W","W",null,"W","W","W",null,"W","W","W","W",null,"W",null,"W","W",null,"W",null,"W","W",null,"W","W","W",null,"W",null,"W","W"],["W",null,"W","W",null,"W",null,"W","W",null,"W",null,"W","W",null,"W",null,"W","W",null,"W",null,"W","W",null,"W",null,"W","W"],["W",null,"W","W",null,"W",null,"W","W",null,"W","W","W","W",null,"W",null,"W","W",null,"W","W","W","W",null,"W",null,"W","W"],["W",null,"W","W",null,"W","W","W","W",null,"W",null,"W","W",null,"W",null,"W","W",null,"W",null,"W","W",null,"W",null,"W","W"],["W",null,"W","W","W","W",null,null,null,null,null,null,null,null,null,null,null,null,null,null,null,null,null,"W","W","W",null,"W","W",null,"W"],["W",null,null,null,null,null,null,null,null,"W",null,null,null,"W",null,null,null,null,"W",null,null,null,null,null,null,null,null,"W",null,null,null,"W","W",null,null,null,"W","W",null,null,"W"],["W","W","W","W","W","W","W","W","W","W","W","W","W","W","W","W","W","W","W","W","W","W","W","W","W","W","W","W","W","W"],["W","W","W","W","W","W","W","W","W","W","W","W","W","W","W","W","W","W","W","W","W","W","W","W","W","W","W","W","W","W"],["W","W","W","W",null,"W","W",null,"W","W","W","W",null,"W","W","W","W","W","W","W","W","W","W","W","W","W","W","W","W","W"],["W","W","W","W",null,"W","W",null,"W","W","W","W",null,"W","W",null,"W",null,"W","W","W","W","W","W","W","W","W","W","W","W","W"],["W","W","W","W","W","W","W","W","W","W","W","W","W","W","W","W",null,"W","W","W","W","W","W","W","W","W","W","W","W","W"],["W",null,"W","W","W","W","W","W","W","W","W","W","W","W","W","W",null,"W","W","W","W","W","W","W","W","W","W","W","W","W"],["W",null,"W","W","W","W",null,"W","W",null,"W",null,"W","W",null,"W",null,"W","W",null,"W",null,"W","W","W","W",null,"W","W",null,"W"],["W",null,null,"W",null,null,"W",null,null,"W",null,null,"W","W",null,"W",null,null,"W",null,null,"W"],["W",null,null,"W",null,null,"W",null,null,"W",null,null,"W",null,null,"W",null,null,"W",null,null,"W",null,null,"W",null,null,"W",null,null,"W",null,null,"W",null,null,"W",null,null,"W",null,null,"W",null,null,"W"],["W",null,null,"W",null,null,"W",null,null,"W",null,null,"W",null,null,"W",null,null,"W",null,null,"W"],["W",null,null,"W",null,null,"W",null,null,"W",null,null,"W",null,null,"W",null,null,"W",null,null,"W",null,null,"W",null,null,"W",null,null,"W",null,null,"W",null,null,"W",null,null,"W",null,null,"W",null,null,"W"],["W",null,null,"W",null,null,"W",null,null,"W",null,null,"W",null,null,"W",null,null,"W",null,null,"W"]],"timingvisible":false,"tabcounter":55,"stave":5,"totalstaves":23,"instrument":"7guitar","selectedtuning":"7_drop_d_and_a","version":"13"}

Member for

4 months 1 week
Submitted by tatsntits on Fri, 2020-07-03 09:36