Sound will begin in 5 seconds

some tinkering

01234567891011121314151617181920212223
E
B
G
D
A
E
B
0 1 2 3 4 5 6 7 8 9 10 11 12 13 14 15 16 17 18 19 20 21 22 23
Song Science #1: How Pros Use 6 Chords to Write Hit Songs
(/) Slide Up  (\) Slide Down  (h) Hammer On  (p) Pull Off  (b) Bend (r) Release (v) Vibrato

Stave 1:

E|------------------------------------------------------------------------------------------------
B|------------------------------------------------------------------------------------------------
G|--7--9b10r9--9--7-----12--10--10--10--10--7--9b10r9--9--7-----7--9--9b10r9--7-----12--12--9--9--
D|-------------------9---------------------------------------9-------------------9----------------
A|------------------------------------------------------------------------------------------------
E|------------------------------------------------------------------------------------------------

Stave 2:

E|--------------------------------------------------------------------
B|--------------------------------------------------------------------
G|----7--7--9--9b10r9--7-----7--9--9b10r9--7-----12--9--12--9--12--9--
D|------------------------9-------------------9--12--0--12--0--12--0--
A|--------------------------------------------------------------------
E|--------------------------------------------------------------------

Stave 3:

E|----------------------------------------------------------------------------------------
B|----------------------------------------------------------------------------------------
G|----7h9p7--7h9--7h9--7h9--7h9--7h9--6h8--6h8--6h8--6h8--6h8--6h8h9--7--9--9b10r9--7-----
D|-------------------------------------------------------------------------------------9--
A|----------------------------------------------------------------------------------------
E|----------------------------------------------------------------------------------------

Stave 4:

E|----5--5--5--5--5--5--7--7--7--7--7--7--5--5--5--5--5--5--7--7--7--7--7--7--
B|----5--5--5--5--5--5--7--7--8--8--8--8--5--5--5--5--5--5--7--7--8--8--8--8--
G|----7--7--7--7--7--7--9--9--9--9--9--9--7--7--7--7--7--7--9--9--9--9--9--9--
D|----7--7--7--7--7--7--9--9--9--9--9--9--7--7--7--7--7--7--9--9--9--9--9--9--
A|----5--5--5--5--5--5--7--7--7--7--7--7--5--5--5--5--5--5--7--7--7--7--7--7--
E|----5--5--5--5--5--5--7--7--7--7--7--7--5--5--5--5--5--5--7--7--7--7--7--7--

Stave 5:

E|----5--5--5--x--x--x--5--5--5--x--x--x--7--7--7--x--x--x--7--7--7--x--x--x--
B|----6--6--6--x--x--x--6--6--6--x--x--x--8--8--8--x--x--x--8--8--8--x--x--x--
G|----7--7--7--x--x--x--7--7--7--x--x--x--9--9--9--x--x--x--9--9--9--x--x--x--
D|----------------------------------------------------------------------------
A|----------------------------------------------------------------------------
E|----------------------------------------------------------------------------

Stave 6:

E|----------------------------------------------------------------------------
B|----------------------------------------------------------------------------
G|----9--9--9--9--7--7--9--9--9--9--7--7--7--7--7--7--5--5--7--7--7--7--5--5--
D|----9--9--9--9--0--0--9--9--9--9--0--0--7--7--7--7--0--0--7--7--7--7--0--0--
A|----------------------------------------------------------------------------
E|----------------------------------------------------------------------------

Stave 7:

E|----5--x--5--x--5--x--5--x--5--x--5--x--7--x--7--x--7--x--7--x--7--x--7--x--
B|----6--x--6--x--6--x--6--x--6--x--6--x--8--x--8--x--8--x--8--x--8--x--8--x--
G|----7--x--7--x--7--x--7--x--7--x--7--x--9--x--9--x--9--x--9--x--9--x--9--x--
D|----------------------------------------------------------------------------
A|----------------------------------------------------------------------------
E|----------------------------------------------------------------------------

http://www.guitartabcreator.com
Guitar Tab Creator is intended to store guitar tab created through the tool. It currently does not support in-line text editing. Any text you place in here will be lost. If you need to comment on your tab, please use the "Tab Notes" section located below.