EJERCICIOS DE DIGITACION NIVEL 1

01234567891011121314151617181920212223
E
B
G
D
A
E
B
0 1 2 3 4 5 6 7 8 9 10 11 12 13 14 15 16 17 18 19 20 21 22 23

Ejercicio 1

E|--------------------------------------------------------------1--2--3--4--------------------------------------------------------------
B|--------------------------------------------------1--2--3--4--------------1--2--3--4--------------------------------------------------
G|--------------------------------------1--2--3--4--------------------------------------1--2--3--4--------------------------------------
D|--------------------------1--2--3--4--------------------------------------------------------------1--2--3--4--------------------------
A|--------------1--2--3--4--------------------------------------------------------------------------------------1--2--3--4--------------
E|--1--2--3--4--------------------------------------------------------------------------------------------------------------1--2--3--4--

Ejercicio 2

E|--------------------------------------------------------------4--3--2--1--------------------------------------------------------------
B|--------------------------------------------------4--3--2--1--------------4--3--2--1--------------------------------------------------
G|--------------------------------------4--3--2--1--------------------------------------4--3--2--1--------------------------------------
D|--------------------------4--3--2--1--------------------------------------------------------------4--3--2--1--------------------------
A|--------------4--3--2--1--------------------------------------------------------------------------------------4--3--2--1--------------
E|--4--3--2--1--------------------------------------------------------------------------------------------------------------4--3--2--1--

Ejercicio 3

E|--------------------------------------------------------------1--4--2--3--------------------------------------------------------------
B|--------------------------------------------------1--4--2--3--------------1--4--2--3--------------------------------------------------
G|--------------------------------------1--4--2--3--------------------------------------1--4--2--3--------------------------------------
D|--------------------------1--4--2--3--------------------------------------------------------------1--4--2--3--------------------------
A|--------------1--4--2--3--------------------------------------------------------------------------------------1--4--2--3--------------
E|--1--4--2--3--------------------------------------------------------------------------------------------------------------1--4--2--3--

Ejercicio 4

E|--------------------------------------------------------------2--3--1--4--------------------------------------------------------------
B|--------------------------------------------------2--3--1--4--------------2--3--1--4--------------------------------------------------
G|--------------------------------------2--3--1--4--------------------------------------2--3--1--4--------------------------------------
D|--------------------------2--3--1--4--------------------------------------------------------------2--3--1--4--------------------------
A|--------------2--3--1--4--------------------------------------------------------------------------------------2--3--1--4--------------
E|--2--3--1--4--------------------------------------------------------------------------------------------------------------2--3--1--4--

							
Chords

Instruments
{"strings":[[[".",".",".",".",".",".",".",".",".",".",".",".",".",".",".",".",".",".",".",".",1,2,3,4,".",".",".",".",".",".",".",".",".",".",".",".",".",".",".",".",".",".",".","."],[".",".",".",".",".",".",".",".",".",".",".",".",".",".",".",".",1,2,3,4,".",".",".",".",1,2,3,4,".",".",".",".",".",".",".",".",".",".",".",".",".",".",".","."],[".",".",".",".",".",".",".",".",".",".",".",".",1,2,3,4,".",".",".",".",".",".",".",".",".",".",".",".",1,2,3,4,".",".",".",".",".",".",".",".",".",".",".","."],[".",".",".",".",".",".",".",".",1,2,3,4,".",".",".",".",".",".",".",".",".",".",".",".",".",".",".",".",".",".",".",".",1,2,3,4,".",".",".",".",".",".",".","."],[".",".",".",".",1,2,3,4,".",".",".",".",".",".",".",".",".",".",".",".",".",".",".",".",".",".",".",".",".",".",".",".",".",".",".",".",1,2,3,4,".",".",".","."],[1,2,3,4,".",".",".",".",".",".",".",".",".",".",".",".",".",".",".",".",".",".",".",".",".",".",".",".",".",".",".",".",".",".",".",".",".",".",".",".",1,2,3,4]],[[".",".",".",".",".",".",".",".",".",".",".",".",".",".",".",".",".",".",".",".",4,3,2,1,".",".",".",".",".",".",".",".",".",".",".",".",".",".",".",".",".",".",".","."],[".",".",".",".",".",".",".",".",".",".",".",".",".",".",".",".",4,3,2,1,".",".",".",".",4,3,2,1,".",".",".",".",".",".",".",".",".",".",".",".",".",".",".","."],[".",".",".",".",".",".",".",".",".",".",".",".",4,3,2,1,".",".",".",".",".",".",".",".",".",".",".",".",4,3,2,1,".",".",".",".",".",".",".",".",".",".",".","."],[".",".",".",".",".",".",".",".",4,3,2,1,".",".",".",".",".",".",".",".",".",".",".",".",".",".",".",".",".",".",".",".",4,3,2,1,".",".",".",".",".",".",".","."],[".",".",".",".",4,3,2,1,".",".",".",".",".",".",".",".",".",".",".",".",".",".",".",".",".",".",".",".",".",".",".",".",".",".",".",".",4,3,2,1,".",".",".","."],[4,3,2,1,".",".",".",".",".",".",".",".",".",".",".",".",".",".",".",".",".",".",".",".",".",".",".",".",".",".",".",".",".",".",".",".",".",".",".",".",4,3,2,1]],[[".",".",".",".",".",".",".",".",".",".",".",".",".",".",".",".",".",".",".",".",1,4,2,3,".",".",".",".",".",".",".",".",".",".",".",".",".",".",".",".",".",".",".","."],[".",".",".",".",".",".",".",".",".",".",".",".",".",".",".",".",1,4,2,3,".",".",".",".",1,4,2,3,".",".",".",".",".",".",".",".",".",".",".",".",".",".",".","."],[".",".",".",".",".",".",".",".",".",".",".",".",1,4,2,3,".",".",".",".",".",".",".",".",".",".",".",".",1,4,2,3,".",".",".",".",".",".",".",".",".",".",".","."],[".",".",".",".",".",".",".",".",1,4,2,3,".",".",".",".",".",".",".",".",".",".",".",".",".",".",".",".",".",".",".",".",1,4,2,3,".",".",".",".",".",".",".","."],[".",".",".",".",1,4,2,3,".",".",".",".",".",".",".",".",".",".",".",".",".",".",".",".",".",".",".",".",".",".",".",".",".",".",".",".",1,4,2,3,".",".",".","."],[1,4,2,3,".",".",".",".",".",".",".",".",".",".",".",".",".",".",".",".",".",".",".",".",".",".",".",".",".",".",".",".",".",".",".",".",".",".",".",".",1,4,2,3]],[[".",".",".",".",".",".",".",".",".",".",".",".",".",".",".",".",".",".",".",".",2,3,1,4,".",".",".",".",".",".",".",".",".",".",".",".",".",".",".",".",".",".",".","."],[".",".",".",".",".",".",".",".",".",".",".",".",".",".",".",".",2,3,1,4,".",".",".",".",2,3,1,4,".",".",".",".",".",".",".",".",".",".",".",".",".",".",".","."],[".",".",".",".",".",".",".",".",".",".",".",".",2,3,1,4,".",".",".",".",".",".",".",".",".",".",".",".",2,3,1,4,".",".",".",".",".",".",".",".",".",".",".","."],[".",".",".",".",".",".",".",".",2,3,1,4,".",".",".",".",".",".",".",".",".",".",".",".",".",".",".",".",".",".",".",".",2,3,1,4,".",".",".",".",".",".",".","."],[".",".",".",".",2,3,1,4,".",".",".",".",".",".",".",".",".",".",".",".",".",".",".",".",".",".",".",".",".",".",".",".",".",".",".",".",2,3,1,4,".",".",".","."],[2,3,1,4,".",".",".",".",".",".",".",".",".",".",".",".",".",".",".",".",".",".",".",".",".",".",".",".",".",".",".",".",".",".",".",".",".",".",".",".",2,3,1,4]]],"numberofstrings":6,"notes":["E","B","G","D","A","E","B"],"capo":0,"stringnotes":["E4","B3","G3","D3","A2","E2"],"comments":["Ejercicio 1","Ejercicio 2","Ejercicio 3","Ejercicio 4"],"timing":[["W","W","W","W","W","W","W","W","W","W","W","W","W","W","W","W","W","W","W","W","W","W","W","W","W","W","W","W","W","W","W","W","W","W","W","W","W","W","W","W","W","W","W","W","W","W","W","W","W",null,"W"],["W","W","W","W","W","W","W","W","W","W","W","W","W","W","W","W","W","W","W","W","W","W","W","W","W","W","W","W","W","W","W","W","W","W","W","W","W","W","W","W","W","W","W","W"],["W","W","W","W","W","W","W","W","W","W","W","W","W","W","W","W","W","W","W","W","W","W","W","W","W","W","W","W","W","W","W","W","W","W","W","W","W","W","W","W","W","W","W","W"],["W","W","W","W","W","W","W","W","W","W","W","W","W","W","W","W","W","W","W","W","W","W","W","W","W","W","W","W","W","W","W","W","W","W","W","W","W","W","W","W","W","W","W","W"]],"timingvisible":false,"tabcounter":44,"stave":3,"totalstaves":4,"instrument":"6guitar","selectedtuning":"6_standard","version":"13"}

Member for

1 week 4 days
Submitted by Tarantula on Sat, 2021-02-20 22:28