Sound will begin in 5 seconds

tabs9

01234567891011121314151617181920212223
E
B
G
D
A
E
B
0 1 2 3 4 5 6 7 8 9 10 11 12 13 14 15 16 17 18 19 20 21 22 23
Song Science #1: How Pros Use 6 Chords to Write Hit Songs
(/) Slide Up  (\) Slide Down  (h) Hammer On  (p) Pull Off  (b) Bend (r) Release (v) Vibrato

Stave 1:

E|----------------------------------
B|--18--16--15--13--16--15--18--16--
G|----------------------------------
D|----------------------------------
A|----------------------------------
E|----------------------------------

Stave 2:

E|--------------------------------------
B|--------------------------------------
G|--------------------------------------
D|--0--0--0--0--4--4--4--4--2--2--2--2--
A|--------------------------------------
E|--------------------------------------

Stave 3:

E|---------------------------------
B|---------12------12------12--14--
G|--11h13------13------11----------
D|---------------------------------
A|---------------------------------
E|---------------------------------

Stave 4:

E|-----------------------------------------
B|---------------------------------14------
G|-----------------12--11--14--11------11--
D|--11/12--14--12--------------------------
A|-----------------------------------------
E|-----------------------------------------

Stave 5:

E|----------------------------------------------------------------------
B|----------------------------------------------------------------------
G|--12--------------12--------------12--------------12--12--14--12--11--
D|------14--12--14------14--12--14------14--12--14----------------------
A|----------------------------------------------------------------------
E|----------------------------------------------------------------------

Stave 6:

E|--------0-----------0--------0-----0-----0-----0--
B|-----8-----8-----8-----8--------8-----------8-----
G|--5-----------4-----------5-----------4-----------
D|--------------------------------------------------
A|--------------------------------------------------
E|--------------------------------------------------

Stave 7:

E|--------------------------------
B|--3-----3--------3-----3--------
G|-----0-----3--5-----0-----3--0--
D|--------------------------------
A|--------------------------------
E|--------------------------------

Stave 8:

E|-----------------------------------
B|-----------------------------------
G|-----------------------------------
D|--0-----0--0-----0--0-----0--2--0--
A|-----4--------4--------4-----------
E|-----------------------------------

Stave 9:

E|--------------------------
B|--8--5--7--5-----5--7--5--
G|--------------7-----------
D|--------------------------
A|--------------------------
E|--------------------------

http://www.guitartabcreator.com
Guitar Tab Creator is intended to store guitar tab created through the tool. It currently does not support in-line text editing. Any text you place in here will be lost. If you need to comment on your tab, please use the "Tab Notes" section located below.