Sound will begin in 5 seconds

tabs8

Chords
01234567891011121314151617181920212223
E
B
G
D
A
E
B
0 1 2 3 4 5 6 7 8 9 10 11 12 13 14 15 16 17 18 19 20 21 22 23
Song Science #1: How Pros Use 6 Chords to Write Hit Songs
(/) Slide Up  (\) Slide Down  (h) Hammer On  (p) Pull Off  (b) Bend (r) Release (v) Vibrato

Stave 1:

E|-------------------------------------------------
B|-------------------------------------------------
G|-------------------------------------------------
D|--0--0--8--7--7--7--7--8--0--0--8--5--5--5--5--7--
A|--0--0--8--7--7--7--7--8--0--0--8--5--5--5--5--7--
E|--0--0--8--7--7--7--7--8--0--0--8--5--5--5--5--7--

Stave 2:

E|--------------------------------------------------------
B|--------------------------------------------------------
G|--------------------------------------------------------
D|--------5--0--5--0--------7--0--7--0--------8--0--8--0--
A|--0--0--5--0--5--0--0--0--7--0--7--0--0--0--8--0--8--0--
E|--0--0--5--0--5--0--0--0--7--0--7--0--0--0--8--0--8--0--

Stave 3:

E|--------------------------
B|--------------------------
G|--------------------------
D|-----6--5--------6--5--8--
A|--5--------8--5-----------
E|--------------------------

Stave 4:

E|-----------------------------
B|-----------------------------
G|-----------------------------
D|-----8--7------7--10--7------
A|--7--------10------------10--
E|-----------------------------

Stave 5:

E|-----------------------------------
B|-----------------------------------
G|-----------------------------------
D|-----------7-----8--------5--7--5--
A|--8--7--5-----5-----5--8-----------
E|-----------------------------------

Stave 6:

E|--------------------------
B|--------------------------
G|--------9--9--------------
D|--7--7--------7--6--6--6--
A|--------------------------
E|--------------------------

Stave 7:

E|--4--0--4--0--4--0--4--0--2--0--2--0--2--0--2--0-----0-----0-----0-----0--2--0--2--0--2--0--2--0--
B|--------------------------------------------------2-----2-----2-----2-----------------------------
G|--------------------------------------------------------------------------------------------------
D|--------------------------------------------------------------------------------------------------
A|--------------------------------------------------------------------------------------------------
E|--------------------------------------------------------------------------------------------------

Stave 8:

E|--4h5p4--2h4p2--0h2p0-----0--
B|-----------------------2-----
G|-----------------------------
D|-----------------------------
A|-----------------------------
E|-----------------------------

Stave 9:

E|----------8------|----------13------|----------11------
B|------11-----11--|--11----------11--|------14------14--
G|--10-------------|------12----------|--13--------------
D|-----------------|------------------|------------------
A|-----------------|------------------|------------------
E|-----------------|------------------|------------------

Stave 10:

E|----------13--------------13--------------13--------------13------
B|------11------11------11------11------11------11------11------11--
G|--12--------------10------------------------------10--------------
D|----------------------------------13------------------------------
A|------------------------------------------------------------------
E|------------------------------------------------------------------

Stave 11:

E|--------------------------------------
B|--------------------------------------
G|--2-----------------2-----------------
D|-----4--2--2--2--4-----4--2--2--2--0--
A|--------------------------------------
E|--------------------------------------

Stave 12:

E|--------------------------
B|--------------------------
G|-----------7--5--0--------
D|--0--3--5-----------3--4--
A|--------------------------
E|--------------------------

Stave 13:

E|--------------------------------------
B|-----------1-----------1-----------1--
G|--------2-----------0-----------0-----
D|-----2-----------2-----------3--------
A|--0-----------2-----------3-----------
E|--------------------------------------

Stave 14:

E|-------------------------------------------
B|-------------------------------------------
G|-------------------------------------------
D|--0--0--0--0--3--0--0--5--0--0--5--0--0--7--
A|--0--0--0--0--3--0--0--3--0--0--5--0--0--5--
E|--0--0--0--0--3--0--0--3--0--0--5--0--0--5--

http://www.guitartabcreator.com
Guitar Tab Creator is intended to store guitar tab created through the tool. It currently does not support in-line text editing. Any text you place in here will be lost. If you need to comment on your tab, please use the "Tab Notes" section located below.