Sound will begin in 5 seconds

tabs6

01234567891011121314151617181920212223
E
B
G
D
A
E
B
0 1 2 3 4 5 6 7 8 9 10 11 12 13 14 15 16 17 18 19 20 21 22 23
Song Science #1: How Pros Use 6 Chords to Write Hit Songs
(/) Slide Up  (\) Slide Down  (h) Hammer On  (p) Pull Off  (b) Bend (r) Release (v) Vibrato

Stave 1:

E|------------------------
B|------------------------
G|--7----------7----------
D|-----5--7/9-----7--7/5--
A|------------------------
E|------------------------

Stave 2:

E|-----------------
B|-----------------
G|--7--------------
D|-----5--5--7--5--
A|-----------------
E|-----------------

Stave 3:

E|----------------------------------------
B|----------------------------------------
G|----------------------------------------
D|----8--5--------------8--5--------------
A|----------8--5--6--5--------8--5--6--8--
E|----------------------------------------

Stave 4:

E|----------------------------------------
B|----------------------------------------
G|----------------------------------------
D|----2\4--4/3--3\4-----2\4--4/3--3\4--6--
A|-------------------6--------------------
E|----------------------------------------

Stave 5:

E|---------------------------------
B|--8h10p8------8--8h10p8------11--
G|----------10-------------10------
D|---------------------------------
A|---------------------------------
E|---------------------------------

Stave 6:

E|-------------------------------------------------------
B|-------------------------------------------------------
G|-------------------------------------------------------
D|----0--0--0--7--0--0--0--3--0--0--0--5--0--0--0--2--3--
A|-------------------------------------------------------
E|-------------------------------------------------------

Stave 7:

E|--------------------------------
B|--------------------------------
G|--1--1-----1--3--1--1-----1--0--
D|--------3--------------3--------
A|--------------------------------
E|--------------------------------

Stave 8:

E|----------------------|----------------------------
B|----------------------|----------------------------
G|--0h2\3-----0h2\3--5--|--0h2\3--------0h2\3--5--0--
D|---------5------------|---------5--0---------------
A|----------------------|----------------------------
E|----------------------|----------------------------

Stave 9:

E|------------------------------------------------------
B|--15--17--15--19--15--19--15--17--15------17------15--
G|--------------------------------------16------14------
D|------------------------------------------------------
A|------------------------------------------------------
E|------------------------------------------------------

Stave 10:

E|--------------------7--------|--------------------7--------
B|--7--7--------5--5-----5--7--|--7--7--------5--5-----5--3--
G|--------7--7-----------------|--------7--7-----------------
D|-----------------------------|-----------------------------
A|-----------------------------|-----------------------------
E|-----------------------------|-----------------------------

http://www.guitartabcreator.com
Guitar Tab Creator is intended to store guitar tab created through the tool. It currently does not support in-line text editing. Any text you place in here will be lost. If you need to comment on your tab, please use the "Tab Notes" section located below.