Sound will begin in 5 seconds

song1

Chords
01234567891011121314151617181920212223
E
B
G
D
A
E
B
0 1 2 3 4 5 6 7 8 9 10 11 12 13 14 15 16 17 18 19 20 21 22 23
Song Science #1: How Pros Use 6 Chords to Write Hit Songs
(/) Slide Up  (\) Slide Down  (h) Hammer On  (p) Pull Off  (b) Bend (r) Release (v) Vibrato

(W|WW) Whole (H|HH) Half (Q|QQ) Quarter (E|EE) 8th (S|SS) 16th (T|TT) 32nd (X|XX) 64th

Stave 1:
t: W W W W W W W W W W W W W W W W W W WW WW WW WW WW WW
E|--------------------------------------------------------------------------------
B|--------------------------------------------------------------------------------
G|--------------------------3--3--------------7--7----------------12--12----------
D|--------3--3--------5--5--------5--5--9--9--------9--9--14--14----------14--14--
A|--5--5--------5--5--------------------------------------------------------------
E|--------------------------------------------------------------------------------

Stave 2:
t: W W W W W W W W W W W W W W W W W W W W W W W W
E|------------------------------------------------------------------------------------------
B|------------------------------------------------------------------------------------------
G|------------------------------------------------------------------------------------------
D|--0--0--8----7--7--7--7----8----0--0--8----7--7--7--7----8----0--0--8----5--5--5--5----7--
A|--0--0--8----7--7--7--7----8----0--0--8----7--7--7--7----8----0--0--8----5--5--5--5----7--
E|--0--0--8----7--7--7--7----8----0--0--8----7--7--7--7----8----0--0--8----5--5--5--5----7--

Stave 3:
t: W W W W W W W W W W W W W W W W W W W W W W W W W W W W W
E|-------------------------------------------------------|----------------------------------------------------
B|-------------------------------------------------------|----------------------------------------------------
G|-------------------------------------------------------|----------------------------------------------------
D|--0--0--2----0--0--4----0--0--2----0--0--4----0--2--0--|--0--0--4----0--0--2----0--0--4----0--0--2----0--4--
A|--0--0--2----0--0--4----0--0--2----0--0--4----0--2--0--|--0--0--4----0--0--2----0--0--4----0--0--2----0--4--
E|--0--0--2----0--0--4----0--0--2----0--0--4----0--2--0--|--0--0--4----0--0--2----0--0--4----0--0--2----0--4--

Stave 4:
t: W W W W H W W W W H WW WW WW WW HH W W W W H
E|-------------------------------------------------------------------
B|-------------------------------------------------------------------
G|-------------------------------------------------------------------
D|--7--7--7--7--7--9--9--9--9--9--11--11--11--11--11--9--9--9--9--9--
A|--5--5--5--5--5--7--7--7--7--7--9---9---9---9---9---7--7--7--7--7--
E|--5--5--5--5--5--7--7--7--7--7--9---9---9---9---9---7--7--7--7--7--

Stave 5:
t: W W W W H W W W W H W W W W H W W W W H
E|--------------------------------------------------------------
B|--------------------------------------------------------------
G|--------------------------------------------------------------
D|--7--7--7--7--7--9--9--9--9--9--6--6--6--6--6--7--7--7--7--7--
A|--5--5--5--5--5--7--7--7--7--7--4--4--4--4--4--5--5--5--5--5--
E|--5--5--5--5--5--7--7--7--7--7--4--4--4--4--4--5--5--5--5--5--

http://www.guitartabcreator.com
Guitar Tab Creator is intended to store guitar tab created through the tool. It currently does not support in-line text editing. Any text you place in here will be lost. If you need to comment on your tab, please use the "Tab Notes" section located below.