Sound will begin in 5 seconds

12

01234567891011121314151617181920212223
E
B
G
D
A
E
B
0 1 2 3 4 5 6 7 8 9 10 11 12 13 14 15 16 17 18 19 20 21 22 23
Song Science #1: How Pros Use 6 Chords to Write Hit Songs
(/) Slide Up  (\) Slide Down  (h) Hammer On  (p) Pull Off  (b) Bend (r) Release (v) Vibrato

Stave 1:

E|-------------------------------------------------------
B|-------------------------------------------------------
G|-------------------------------------------------------
D|------------10-----------------------------------------
A|-----12------------10-----12-----8-----10-----7-----8--
E|--0------0------0------0------0-----0------0-----0-----

Stave 2:

E|-----------------------------------------
B|-----------------------------------------
G|-----------------------------------------
D|----------------------------10-----------
A|--------12--------10------------------8--
E|--0--0------0--0------0--0------0--0-----

Stave 3:

E|------------------------------------------------------
B|------------------------------------------------------
G|------------------------------------------------------
D|------------------------------------------------------
A|-----12-----8-----7-----8-----12-----8-----13-----12--
E|--0------0-----0-----0-----0------0-----0------0------

Stave 4:

E|------10--9------9--9--10--9--10------10--9------12--10--9--10------10--9------10--12--10--12--12--
B|--12---------10-------------------12---------10-----------------12---------10----------------------
G|---------------------------------------------------------------------------------------------------
D|---------------------------------------------------------------------------------------------------
A|---------------------------------------------------------------------------------------------------
E|---------------------------------------------------------------------------------------------------

Stave 5:

E|--------------------------------0-----------------------------------------
B|--------------0-----------------------------------0-----------------0--2--
G|--------2--------2--------2--------2--------2--------2--------2-----------
D|--------------------------------------------------------------------------
A|--------------------------------------------------------------------------
E|--4--4-----4--------0--0-----0--------2--2-----2--------0--0-----0--------

Stave 6:

E|--------------
B|--7-----------
G|-----7-----7--
D|--------------
A|--------9-----
E|--------------

Stave 7:

E|-------------------------------------------------------
B|-------------------------------------------------------
G|-------------------------------------------------------
D|--12------------------10-------------------------7-----
A|------------12------------------10--------8--10-----8--
E|------0--0------0--0------0--0------0--0---------------

Stave 8:

E|-------------------------------
B|-------------------------------
G|-------------------------------
D|-------------------------7-----
A|--------10h12p10--8--10-----8--
E|--0--0-------------------------

http://www.guitartabcreator.com
Guitar Tab Creator is intended to store guitar tab created through the tool. It currently does not support in-line text editing. Any text you place in here will be lost. If you need to comment on your tab, please use the "Tab Notes" section located below.