Sound will begin in 5 seconds

10

01234567891011121314151617181920212223
E
B
G
D
A
E
B
0 1 2 3 4 5 6 7 8 9 10 11 12 13 14 15 16 17 18 19 20 21 22 23
Song Science #1: How Pros Use 6 Chords to Write Hit Songs
(/) Slide Up  (\) Slide Down  (h) Hammer On  (p) Pull Off  (b) Bend (r) Release (v) Vibrato

Stave 1:

E|---------------------------------------------------------
B|---------------------------------------------------------
G|--9--10--9-----9--10--9------9--10--9--7--9--10--12--10--
D|------------8------------10------------------------------
A|---------------------------------------------------------
E|---------------------------------------------------------

Stave 2:

E|----------17----------15----------14----------15----------12--14-----
B|--17--15------15--15------15--15------15--15------15--15-------------
G|---------------------------------------------------------------------
D|---------------------------------------------------------------------
A|---------------------------------------------------------------------
E|---------------------------------------------------------------------

Stave 3:

E|--------------------------------
B|--------------------------------
G|--------------------------------
D|--------------------------------
A|--14--11--13--10--12--9--11--8--
E|--------------------------------

Stave 4:

E|--17--17----------16----------15----------
B|----------17--14------16--13------15--12--
G|------------------------------------------
D|------------------------------------------
A|------------------------------------------
E|------------------------------------------

Stave 5:

E|--------------------------------------------
B|--------------------------------------------
G|-----0--0--2--0--4--0-----0--0--4--0--2--0--
D|-----------------------0--------------------
A|--3-----------------------------------------
E|--------------------------------------------

Stave 6:

E|--------------12--------------10------------8----------10------
B|--13------13------11------11------9------9---------11------11--
G|------12--------------12-------------10--------12--------------
D|---------------------------------------------------------------
A|---------------------------------------------------------------
E|---------------------------------------------------------------

Stave 7:

E|--------------------------------------
B|--------------------------------------
G|--------------13------11--------------
D|--14--14--11------13------13--10--11--
A|--------------------------------------
E|--------------------------------------

http://www.guitartabcreator.com
Guitar Tab Creator is intended to store guitar tab created through the tool. It currently does not support in-line text editing. Any text you place in here will be lost. If you need to comment on your tab, please use the "Tab Notes" section located below.