KAGE - Stage 1 - Guitarra 2

01234567891011121314151617181920212223
E
B
G
D
A
E
B
0 1 2 3 4 5 6 7 8 9 10 11 12 13 14 15 16 17 18 19 20 21 22 23
(/) Slide Up  (\) Slide Down  (h) Hammer On  (p) Pull Off  (b) Bend (r) Release (v) Vibrato

Stave 1:

D|------------------------------------------------------------------------------------
A|------------------------------------------------------------------------------------
F|--------------7--------------9--------------7--------------9--------9---------------
C|-----------------------------------------------------------------------9--7---------
G|--7--7--7--7-----7--7--7--7-----7--7--7--7-----7--7--7--7-----7--7-----------10--7--
D|------------------------------------------------------------------------------------

Stave 2:

D|------15------19--18------19--18--15------------------------------------------------------------------------------------------
A|--17------17----------17--------------17--------------------------------------------------------------------------------------
F|------------------------------------------16--14--14--------------------------------------------------------------------------
C|------------------------------------------------------16--14--------------------------14------16------17------16--------------
G|--------------------------------------------------------------16--14------14--16--16------16------16------16------16--14--16--
D|----------------------------------------------------------------------16------------------------------------------------------

Stave 3:

D|--7--7------------------------------------------------------7--7--------------------3--7--6--7--3-----3--------------
A|--------8--5--5--------------------------------7--8--10--7--------8--5--5--------5-----------------5-----7--6--5-----
F|-----------------4--5--4--5--7--6--8--9--8--9------------------------------4--4-----------------------------------4--
C|---------------------------------------------------------------------------------------------------------------------
G|---------------------------------------------------------------------------------------------------------------------
D|---------------------------------------------------------------------------------------------------------------------

Stave 4:

D|--7--7-----------------------------------------------------------------------------------------------------------------------------------
A|--------8--5--5--------------------------------7--9--11--8-------------------------------------------------------------------------------
F|-----------------4--5--4--5--7--6--8--9--8--9---------------9--9--9--10--10--10--11--11--11--12--12--12--13--13--13--14--11--12--13--14--
C|-----------------------------------------------------------------------------------------------------------------------------------------
G|-----------------------------------------------------------------------------------------------------------------------------------------
D|-----------------------------------------------------------------------------------------------------------------------------------------

Stave 5:

D|--------------------------------------------------------------------------------------------------------------------------------------------------------------------------------
A|--------------------------------------------------------------------------------------------------------------------------------------------------------------------------------
F|------------------------------------------------9------9--11--9--9--------------------------------------------9-------------9----------9--11--11--9------9----------------------
C|--9----------7--9------7--9--12--11--9--11--12-----12---------------12--9----------7--9------7--9--9--11--12-----9--11--12-----11--12----------------12-----12--12--14--14--14--
G|-----10--10--------10------------------------------------------------------10--10--------10-------------------------------------------------------------------------------------
D|--------------------------------------------------------------------------------------------------------------------------------------------------------------------------------

							http://www.guitartabcreator.com
Chords

Instruments
{"strings":[[[".",".",".",".",".",".",".",".",".",".",".",".",".",".",".",".",".",".",".",".",".",".",".",".",".",".","."],[".",".",".",".",".",".",".",".",".",".",".",".",".",".",".",".",".",".",".",".",".",".",".",".",".",".","."],[".",".",".",".",7,".",".",".",".",9,".",".",".",".",7,".",".",".",".",9,".",".",9,".",".",".","."],[".",".",".",".",".",".",".",".",".",".",".",".",".",".",".",".",".",".",".",".",".",".",".",9,7,".","."],[7,7,7,7,".",7,7,7,7,".",7,7,7,7,".",7,7,7,7,".",7,7,".",".",".",10,7],[".",".",".",".",".",".",".",".",".",".",".",".",".",".",".",".",".",".",".",".",".",".",".",".",".",".","."]],[[".",15,".",19,18,".",19,18,15,".",".",".",".",".",".",".",".",".",".",".",".",".",".",".",".",".",".",".",".",".","."],[17,".",17,".",".",17,".",".",".",17,".",".",".",".",".",".",".",".",".",".",".",".",".",".",".",".",".",".",".",".","."],[".",".",".",".",".",".",".",".",".",".",16,14,14,".",".",".",".",".",".",".",".",".",".",".",".",".",".",".",".",".","."],[".",".",".",".",".",".",".",".",".",".",".",".",".",16,14,".",".",".",".",".",".",14,".",16,".",17,".",16,".",".","."],[".",".",".",".",".",".",".",".",".",".",".",".",".",".",".",16,14,".",14,16,16,".",16,".",16,".",16,".",16,14,16],[".",".",".",".",".",".",".",".",".",".",".",".",".",".",".",".",".",16,".",".",".",".",".",".",".",".",".",".",".",".","."]],[[7,7,".",".",".",".",".",".",".",".",".",".",".",".",".",".",".",".",".",7,7,".",".",".",".",".",".",3,7,6,7,3,".",3,".",".",".","."],[".",".",8,5,5,".",".",".",".",".",".",".",".",".",".",7,8,10,7,".",".",8,5,5,".",".",5,".",".",".",".",".",5,".",7,6,5,"."],[".",".",".",".",".",4,5,4,5,7,6,8,9,8,9,".",".",".",".",".",".",".",".",".",4,4,".",".",".",".",".",".",".",".",".",".",".",4],[".",".",".",".",".",".",".",".",".",".",".",".",".",".",".",".",".",".",".",".",".",".",".",".",".",".",".",".",".",".",".",".",".",".",".",".",".","."],[".",".",".",".",".",".",".",".",".",".",".",".",".",".",".",".",".",".",".",".",".",".",".",".",".",".",".",".",".",".",".",".",".",".",".",".",".","."],[".",".",".",".",".",".",".",".",".",".",".",".",".",".",".",".",".",".",".",".",".",".",".",".",".",".",".",".",".",".",".",".",".",".",".",".",".","."]],[[7,7,".",".",".",".",".",".",".",".",".",".",".",".",".",".",".",".",".",".",".",".",".",".",".",".",".",".",".",".",".",".",".",".",".",".",".",".","."],[".",".",8,5,5,".",".",".",".",".",".",".",".",".",".",7,9,11,8,".",".",".",".",".",".",".",".",".",".",".",".",".",".",".",".",".",".",".","."],[".",".",".",".",".",4,5,4,5,7,6,8,9,8,9,".",".",".",".",9,9,9,10,10,10,11,11,11,12,12,12,13,13,13,14,11,12,13,14],[".",".",".",".",".",".",".",".",".",".",".",".",".",".",".",".",".",".",".",".",".",".",".",".",".",".",".",".",".",".",".",".",".",".",".",".",".",".","."],[".",".",".",".",".",".",".",".",".",".",".",".",".",".",".",".",".",".",".",".",".",".",".",".",".",".",".",".",".",".",".",".",".",".",".",".",".",".","."],[".",".",".",".",".",".",".",".",".",".",".",".",".",".",".",".",".",".",".",".",".",".",".",".",".",".",".",".",".",".",".",".",".",".",".",".",".",".","."]],[[".",".",".",".",".",".",".",".",".",".",".",".",".",".",".",".",".",".",".",".",".",".",".",".",".",".",".",".",".",".",".",".",".",".",".",".",".",".",".",".",".",".",".",".",".",".",".",".","."],[".",".",".",".",".",".",".",".",".",".",".",".",".",".",".",".",".",".",".",".",".",".",".",".",".",".",".",".",".",".",".",".",".",".",".",".",".",".",".",".",".",".",".",".",".",".",".",".","."],[".",".",".",".",".",".",".",".",".",".",".",".",".",9,".",9,11,9,9,".",".",".",".",".",".",".",".",".",".",".",".",9,".",".",".",9,".",".",9,11,11,9,".",9,".",".",".",".","."],[9,".",".",7,9,".",7,9,12,11,9,11,12,".",12,".",".",".",".",12,9,".",".",7,9,".",7,9,9,11,12,".",9,11,12,".",11,12,".",".",".",".",12,".",12,12,14,14,14],[".",10,10,".",".",10,".",".",".",".",".",".",".",".",".",".",".",".",".",".",".",10,10,".",".",10,".",".",".",".",".",".",".",".",".",".",".",".",".",".",".",".",".",".",".",".",".",".","."],[".",".",".",".",".",".",".",".",".",".",".",".",".",".",".",".",".",".",".",".",".",".",".",".",".",".",".",".",".",".",".",".",".",".",".",".",".",".",".",".",".",".",".",".",".",".",".",".","."]]],"numberofstrings":6,"notes":["D","A","F","C","G","D"],"capo":0,"stringnotes":["D3","A2","F2","C2","G1","D1"],"comments":["Stave 1:","Stave 2:","Stave 3:","Stave 4:","Stave 5:"],"timing":[["W","W","W","W","W","W","W","W","W","W","W","W","W","W","W","W","W","W","W","W","W","W","W","W","W","W","W"],["W","W","W","W","W","W","W","W","W","W","W","W","W","W","W","W","W","W","W","W","W","W","W","W","W","W","W","W","W","W","W"],["W","W","W","W","W","W","W","W","W","W","W","W","W","W","W","W","W","W","W","W","W","W","W","W","W","W","W","W","W","W","W","W","W","W","W","W","W","W"],["W","W","W","W","W","W","W","W","W","W","W","W","W","W","W","W","W","W","W","W","W","W","W","W","W","W","W","W","W","W","W","W","W","W","W","W","W","W","W"],["W","W","W","W","W","W","W","W","W","W","W","W","W","W","W","W","W","W","W","W","W","W","W","W","W","W","W","W","W","W","W","W","W","W","W","W","W","W","W","W","W","W","W","W","W","W","W","W","W","W"]],"timingvisible":false,"tabcounter":49,"stave":4,"totalstaves":5,"instrument":"6guitar","selectedtuning":"Full Step Down","version":"13"}

Member for

2 months
Submitted by takeopg on Thu, 2021-10-07 20:55