KAGE - Stage 1 - Guitarra 1

01234567891011121314151617181920212223
E
B
G
D
A
E
B
0 1 2 3 4 5 6 7 8 9 10 11 12 13 14 15 16 17 18 19 20 21 22 23
(/) Slide Up  (\) Slide Down  (h) Hammer On  (p) Pull Off  (b) Bend (r) Release (v) Vibrato

Stave 1:

D|----------------------------------------------------------------------------------------------------------
A|----------------------------------------------------------------------------------------------------------
F|------------------12------------------14------------------12------------------14----------12--------------
C|--14--14--14--14------14--14--14--14------14--14--14--14------14--14--14--14------14--14------16--14--12--
G|----------------------------------------------------------------------------------------------------------
D|----------------------------------------------------------------------------------------------------------

Stave 2:

D|------15------19--18------19--18--15------------------------------------------------------------------------------------------------------------------------------------------
A|--17------17----------17--------------17--15----------------------------------------------------------------------------------------------------------------------------------
F|----------------------------------------------16--15--14--12--------------------------12------14------15------14----------------------12------14------15------14--------------
C|--------------------------------------------------------------14--12------12--14--14------14------14------14------14--12--14--14--14------14------14------14------14--12--14--
G|----------------------------------------------------------------------14------------------------------------------------------------------------------------------------------
D|------------------------------------------------------------------------------------------------------------------------------------------------------------------------------

Stave 3:

D|--12--12--------------------------------------------------------------10--12--12----------------------------12--11--12------------------------------
A|----------11----------------------------------------------10--11--12--------------11--------------------12--------------12------12--11--10----------
F|--------------12--12--9--9--8--9--11--10--11--12--11--12------------------------------12--12--9--9--12----------------------12--------------12--11--
C|----------------------------------------------------------------------------------------------------------------------------------------------------
G|----------------------------------------------------------------------------------------------------------------------------------------------------
D|----------------------------------------------------------------------------------------------------------------------------------------------------

Stave 4:

D|--12--12--------------------------------------------------------------------------------------------------------------------------------------------------
A|----------11----------------------------------------------10--12--13--15--12--12--12--13--13--13--14--14--14--15--15--15--16--16--16--17--15--16--17--19--
F|--------------12--12--9--9--8--9--11--10--11--12--11--12--------------------------------------------------------------------------------------------------
C|----------------------------------------------------------------------------------------------------------------------------------------------------------
G|----------------------------------------------------------------------------------------------------------------------------------------------------------
D|----------------------------------------------------------------------------------------------------------------------------------------------------------

Stave 5:

D|--------------------------------------------------12------12--14--12--12--------------------------------------------------12--------------12----------12--14--14--12------------------------------
A|--------------12----------12--15--14--12--14--15------15------------------15--12--------------12----------12--12--14--15------12--14--15------14--15------------------15--17--15--15--17--17--17--
F|--12--12--14------12--14----------------------------------------------------------12--12--14------12--14------------------------------------------------------------------------------------------
C|--------------------------------------------------------------------------------------------------------------------------------------------------------------------------------------------------
G|--------------------------------------------------------------------------------------------------------------------------------------------------------------------------------------------------
D|--------------------------------------------------------------------------------------------------------------------------------------------------------------------------------------------------

							http://www.guitartabcreator.com
Chords

Instruments
{"strings":[[[".",".",".",".",".",".",".",".",".",".",".",".",".",".",".",".",".",".",".",".",".",".",".",".",".","."],[".",".",".",".",".",".",".",".",".",".",".",".",".",".",".",".",".",".",".",".",".",".",".",".",".","."],[".",".",".",".",12,".",".",".",".",14,".",".",".",".",12,".",".",".",".",14,".",".",12,".",".","."],[14,14,14,14,".",14,14,14,14,".",14,14,14,14,".",14,14,14,14,".",14,14,".",16,14,12],[".",".",".",".",".",".",".",".",".",".",".",".",".",".",".",".",".",".",".",".",".",".",".",".",".","."],[".",".",".",".",".",".",".",".",".",".",".",".",".",".",".",".",".",".",".",".",".",".",".",".",".","."]],[[".",15,".",19,18,".",19,18,15,".",".",".",".",".",".",".",".",".",".",".",".",".",".",".",".",".",".",".",".",".",".",".",".",".",".",".",".",".",".",".",".",".","."],[17,".",17,".",".",17,".",".",".",17,15,".",".",".",".",".",".",".",".",".",".",".",".",".",".",".",".",".",".",".",".",".",".",".",".",".",".",".",".",".",".",".","."],[".",".",".",".",".",".",".",".",".",".",".",16,15,14,12,".",".",".",".",".",".",12,".",14,".",15,".",14,".",".",".",".",".",12,".",14,".",15,".",14,".",".","."],[".",".",".",".",".",".",".",".",".",".",".",".",".",".",".",14,12,".",12,14,14,".",14,".",14,".",14,".",14,12,14,14,14,".",14,".",14,".",14,".",14,12,14],[".",".",".",".",".",".",".",".",".",".",".",".",".",".",".",".",".",14,".",".",".",".",".",".",".",".",".",".",".",".",".",".",".",".",".",".",".",".",".",".",".",".","."],[".",".",".",".",".",".",".",".",".",".",".",".",".",".",".",".",".",".",".",".",".",".",".",".",".",".",".",".",".",".",".",".",".",".",".",".",".",".",".",".",".",".","."]],[[12,12,".",".",".",".",".",".",".",".",".",".",".",".",".",".",".",".",10,12,12,".",".",".",".",".",".",".",12,11,12,".",".",".",".",".",".","."],[".",".",11,".",".",".",".",".",".",".",".",".",".",".",".",10,11,12,".",".",".",11,".",".",".",".",".",12,".",".",".",12,".",12,11,10,".","."],[".",".",".",12,12,9,9,8,9,11,10,11,12,11,12,".",".",".",".",".",".",".",12,12,9,9,12,".",".",".",".",".",12,".",".",".",12,11],[".",".",".",".",".",".",".",".",".",".",".",".",".",".",".",".",".",".",".",".",".",".",".",".",".",".",".",".",".",".",".",".",".",".",".",".",".","."],[".",".",".",".",".",".",".",".",".",".",".",".",".",".",".",".",".",".",".",".",".",".",".",".",".",".",".",".",".",".",".",".",".",".",".",".",".","."],[".",".",".",".",".",".",".",".",".",".",".",".",".",".",".",".",".",".",".",".",".",".",".",".",".",".",".",".",".",".",".",".",".",".",".",".",".","."]],[[12,12,".",".",".",".",".",".",".",".",".",".",".",".",".",".",".",".",".",".",".",".",".",".",".",".",".",".",".",".",".",".",".",".",".",".",".",".","."],[".",".",11,".",".",".",".",".",".",".",".",".",".",".",".",10,12,13,15,12,12,12,13,13,13,14,14,14,15,15,15,16,16,16,17,15,16,17,19],[".",".",".",12,12,9,9,8,9,11,10,11,12,11,12,".",".",".",".",".",".",".",".",".",".",".",".",".",".",".",".",".",".",".",".",".",".",".","."],[".",".",".",".",".",".",".",".",".",".",".",".",".",".",".",".",".",".",".",".",".",".",".",".",".",".",".",".",".",".",".",".",".",".",".",".",".",".","."],[".",".",".",".",".",".",".",".",".",".",".",".",".",".",".",".",".",".",".",".",".",".",".",".",".",".",".",".",".",".",".",".",".",".",".",".",".",".","."],[".",".",".",".",".",".",".",".",".",".",".",".",".",".",".",".",".",".",".",".",".",".",".",".",".",".",".",".",".",".",".",".",".",".",".",".",".",".","."]],[[".",".",".",".",".",".",".",".",".",".",".",".",12,".",12,14,12,12,".",".",".",".",".",".",".",".",".",".",".",".",12,".",".",".",12,".",".",12,14,14,12,".",".",".",".",".",".","."],[".",".",".",12,".",".",12,15,14,12,14,15,".",15,".",".",".",".",15,12,".",".",".",12,".",".",12,12,14,15,".",12,14,15,".",14,15,".",".",".",".",15,17,15,15,17,17,17],[12,12,14,".",12,14,".",".",".",".",".",".",".",".",".",".",".",".",".",".",12,12,14,".",12,14,".",".",".",".",".",".",".",".",".",".",".",".",".",".",".",".",".",".",".",".",".","."],[".",".",".",".",".",".",".",".",".",".",".",".",".",".",".",".",".",".",".",".",".",".",".",".",".",".",".",".",".",".",".",".",".",".",".",".",".",".",".",".",".",".",".",".",".",".",".","."],[".",".",".",".",".",".",".",".",".",".",".",".",".",".",".",".",".",".",".",".",".",".",".",".",".",".",".",".",".",".",".",".",".",".",".",".",".",".",".",".",".",".",".",".",".",".",".","."],[".",".",".",".",".",".",".",".",".",".",".",".",".",".",".",".",".",".",".",".",".",".",".",".",".",".",".",".",".",".",".",".",".",".",".",".",".",".",".",".",".",".",".",".",".",".",".","."]]],"numberofstrings":6,"notes":["D","A","F","C","G","D"],"capo":0,"stringnotes":["D3","A2","F2","C2","G1","D1"],"comments":["Stave 1:","Stave 2:","Stave 3:","Stave 4:","Stave 5:"],"timing":[["W","W","W","W","W","W","W","W","W","W","W","W","W","W","W","W","W","W","W","W","W","W","W","W","W","W"],["W","W","W","W","W","W","W","W","W","W","W","W","W","W","W","W","W","W","W","W","W","W","W","W","W","W","W","W","W","W","W","W","W","W","W","W","W","W","W","W","W","W","W"],["W","W","W","W","W","W","W","W","W","W","W","W","W","W","W","W","W","W","W","W","W","W","W","W","W","W","W","W","W","W","W","W","W","W","W","W","W","W"],["W","W","W","W","W","W","W","W","W","W","W","W","W","W","W","W","W","W","W","W","W","W","W","W","W","W","W","W","W","W","W","W","W","W","W","W","W","W","W"],["W","W","W","W","W","W","W","W","W","W","W","W","W","W","W","W","W","W","W","W","W","W","W","W","W","W","W","W","W","W","W","W","W","W","W","W","W","W","W","W","W","W","W","W","W","W","W","W"]],"timingvisible":false,"tabcounter":48,"stave":4,"totalstaves":5,"instrument":"6guitar","selectedtuning":"Full Step Down","version":"13"}

Member for

2 months
Submitted by takeopg on Thu, 2021-09-30 20:00