KAGE - Intro - Guitarra 2

01234567891011121314151617181920212223
E
B
G
D
A
E
B
0 1 2 3 4 5 6 7 8 9 10 11 12 13 14 15 16 17 18 19 20 21 22 23
(/) Slide Up  (\) Slide Down  (h) Hammer On  (p) Pull Off  (b) Bend (r) Release (v) Vibrato

Stave 1:

D|-----------------------------------------------------------------------------------------------------------------3--5--7--7--9--10--11--12--
A|--------------------------------------------------------------------------------------------3--2--3--5--3--5--7-----------------------------
F|--9--7----------------------9--7-----16--14--12--14--16--14------------------------------2--------------------------------------------------
C|--------9--9--10--10--7--9--------9--------------------------16--16--17--17--0--2--4--4-----------------------------------------------------
G|--------------------------------------------------------------------------------------------------------------------------------------------
D|--------------------------------------------------------------------------------------------------------------------------------------------

Stave 2:

D|--------------------------------------------------------------------------------------------------------
A|--12--10--8--7--8--8--7--8--10--12--5--5--5--7--8--10--5--5--5--7--8--7--7--7--8--10--7--8--8--8--7--8--
F|--------------------------------------------------------------------------------------------------------
C|--------------------------------------------------------------------------------------------------------
G|--------------------------------------------------------------------------------------------------------
D|--------------------------------------------------------------------------------------------------------

Stave 3:

D|--------------------------------------------------------------------------------------------------------
A|--12--10--8--7--8--8--7--8--10--12--5--5--5--7--8--10--5--5--5--7--8--7--7--7--8--10--7--8--8--8--7--8--
F|--------------------------------------------------------------------------------------------------------
C|--------------------------------------------------------------------------------------------------------
G|--------------------------------------------------------------------------------------------------------
D|--------------------------------------------------------------------------------------------------------

Stave 4:

D|--7--5--------------------------8-----8--12--10--12--10------------------------------------------7--10--12--
A|--------8--7--5-----5--8--5--8-----8---------------------10--12--10--7--8--7-----------9--10--9-------------
F|-----------------5------------------------------------------------------------7--9--7-----------------------
C|------------------------------------------------------------------------------------------------------------
G|------------------------------------------------------------------------------------------------------------
D|------------------------------------------------------------------------------------------------------------








Stave 5:

D|-----------------8-----8--12--10--12--10--------------------------------------------------------------------
A|-----5--8--5--8-----8---------------------10--12--10--7--8--7------------------9-------------------------9--
F|--5------------------------------------------------------------7--9--7--9--11-----9-------------------9-----
C|-------------------------------------------------------------------------------------9------9------9--------
G|----------------------------------------------------------------------------------------11-----11-----------
D|------------------------------------------------------------------------------------------------------------

Stave 6:

D|-------------------------12---------12--16------12--16--19--16--12------12------------
A|--------9--12-----9--12------9--12----------12----------------------12------12--9-----
F|-----9---------9-------------------------------------------------------------------9--
C|--9-----------------------------------------------------------------------------------
G|--------------------------------------------------------------------------------------
D|--------------------------------------------------------------------------------------

Stave 7:

D|--------------------8-----8--12--10--12--10--------------------------------------------------
A|--5-----5--8--5--8-----8---------------------10--12--10--7--8--7--------------7--9--7--7--9--
F|-----5------------------------------------------------------------7--9--7--9-----------------
C|---------------------------------------------------------------------------------------------
G|---------------------------------------------------------------------------------------------
D|---------------------------------------------------------------------------------------------

							http://www.guitartabcreator.com
Chords

Instruments
{"strings":[[[".",".",".",".",".",".",".",".",".",".",".",".",".",".",".",".",".",".",".",".",".",".",".",".",".",".",".",".",".",".",".",".",".",3,5,7,7,9,10,11,12],[".",".",".",".",".",".",".",".",".",".",".",".",".",".",".",".",".",".",".",".",".",".",".",".",".",".",3,2,3,5,3,5,7,".",".",".",".",".",".",".","."],[9,7,".",".",".",".",".",".",9,7,".",16,14,12,14,16,14,".",".",".",".",".",".",".",".",2,".",".",".",".",".",".",".",".",".",".",".",".",".",".","."],[".",".",9,9,10,10,7,9,".",".",9,".",".",".",".",".",".",16,16,17,17,0,2,4,4,".",".",".",".",".",".",".",".",".",".",".",".",".",".",".","."],[".",".",".",".",".",".",".",".",".",".",".",".",".",".",".",".",".",".",".",".",".",".",".",".",".",".",".",".",".",".",".",".",".",".",".",".",".",".",".",".","."],[".",".",".",".",".",".",".",".",".",".",".",".",".",".",".",".",".",".",".",".",".",".",".",".",".",".",".",".",".",".",".",".",".",".",".",".",".",".",".",".","."]],[[".",".",".",".",".",".",".",".",".",".",".",".",".",".",".",".",".",".",".",".",".",".",".",".",".",".",".",".",".",".",".","."],[12,10,8,7,8,8,7,8,10,12,5,5,5,7,8,10,5,5,5,7,8,7,7,7,8,10,7,8,8,8,7,8],[".",".",".",".",".",".",".",".",".",".",".",".",".",".",".",".",".",".",".",".",".",".",".",".",".",".",".",".",".",".",".","."],[".",".",".",".",".",".",".",".",".",".",".",".",".",".",".",".",".",".",".",".",".",".",".",".",".",".",".",".",".",".",".","."],[".",".",".",".",".",".",".",".",".",".",".",".",".",".",".",".",".",".",".",".",".",".",".",".",".",".",".",".",".",".",".","."],[".",".",".",".",".",".",".",".",".",".",".",".",".",".",".",".",".",".",".",".",".",".",".",".",".",".",".",".",".",".",".","."]],[[".",".",".",".",".",".",".",".",".",".",".",".",".",".",".",".",".",".",".",".",".",".",".",".",".",".",".",".",".",".",".","."],[12,10,8,7,8,8,7,8,10,12,5,5,5,7,8,10,5,5,5,7,8,7,7,7,8,10,7,8,8,8,7,8],[".",".",".",".",".",".",".",".",".",".",".",".",".",".",".",".",".",".",".",".",".",".",".",".",".",".",".",".",".",".",".","."],[".",".",".",".",".",".",".",".",".",".",".",".",".",".",".",".",".",".",".",".",".",".",".",".",".",".",".",".",".",".",".","."],[".",".",".",".",".",".",".",".",".",".",".",".",".",".",".",".",".",".",".",".",".",".",".",".",".",".",".",".",".",".",".","."],[".",".",".",".",".",".",".",".",".",".",".",".",".",".",".",".",".",".",".",".",".",".",".",".",".",".",".",".",".",".",".","."]],[[7,5,".",".",".",".",".",".",".",".",8,".",8,12,10,12,10,".",".",".",".",".",".",".",".",".",".",".",".",7,10,12],[".",".",8,7,5,".",5,8,5,8,".",8,".",".",".",".",".",10,12,10,7,8,7,".",".",".",9,10,9,".",".","."],[".",".",".",".",".",5,".",".",".",".",".",".",".",".",".",".",".",".",".",".",".",".",".",7,9,7,".",".",".",".",".","."],[".",".",".",".",".",".",".",".",".",".",".",".",".",".",".",".",".",".",".",".",".",".",".",".",".",".",".",".",".",".",".","."],[".",".",".",".",".",".",".",".",".",".",".",".",".",".",".",".",".",".",".",".",".",".",".",".",".",".",".",".",".",".",".","."],[".",".",".",".",".",".",".",".",".",".",".",".",".",".",".",".",".",".",".",".",".",".",".",".",".",".",".",".",".",".",".","."]],[[".",".",".",".",".",8,".",8,12,10,12,10,".",".",".",".",".",".",".",".",".",".",".",".",".",".",".",".",".",".",".","."],[".",5,8,5,8,".",8,".",".",".",".",".",10,12,10,7,8,7,".",".",".",".",".",9,".",".",".",".",".",".",".",9],[5,".",".",".",".",".",".",".",".",".",".",".",".",".",".",".",".",".",7,9,7,9,11,".",9,".",".",".",".",".",9,"."],[".",".",".",".",".",".",".",".",".",".",".",".",".",".",".",".",".",".",".",".",".",".",".",".",".",9,".",9,".",9,".","."],[".",".",".",".",".",".",".",".",".",".",".",".",".",".",".",".",".",".",".",".",".",".",".",".",".",".",11,".",11,".",".","."],[".",".",".",".",".",".",".",".",".",".",".",".",".",".",".",".",".",".",".",".",".",".",".",".",".",".",".",".",".",".",".","."]],[[".",".",".",".",".",".",".",12,".",".",12,16,".",12,16,19,16,12,".",12,".",".","."],[".",".",9,12,".",9,12,".",9,12,".",".",12,".",".",".",".",".",12,".",12,9,"."],[".",9,".",".",9,".",".",".",".",".",".",".",".",".",".",".",".",".",".",".",".",".",9],[9,".",".",".",".",".",".",".",".",".",".",".",".",".",".",".",".",".",".",".",".",".","."],[".",".",".",".",".",".",".",".",".",".",".",".",".",".",".",".",".",".",".",".",".",".","."],[".",".",".",".",".",".",".",".",".",".",".",".",".",".",".",".",".",".",".",".",".",".","."]],[[".",".",".",".",".",".",8,".",8,12,10,12,10,".",".",".",".",".",".",".",".",".",".",".",".",".",".","."],[5,".",5,8,5,8,".",8,".",".",".",".",".",10,12,10,7,8,7,".",".",".",".",7,9,7,7,9],[".",5,".",".",".",".",".",".",".",".",".",".",".",".",".",".",".",".",".",7,9,7,9,".",".",".",".","."],[".",".",".",".",".",".",".",".",".",".",".",".",".",".",".",".",".",".",".",".",".",".",".",".",".",".",".","."],[".",".",".",".",".",".",".",".",".",".",".",".",".",".",".",".",".",".",".",".",".",".",".",".",".",".",".","."],[".",".",".",".",".",".",".",".",".",".",".",".",".",".",".",".",".",".",".",".",".",".",".",".",".",".",".","."]]],"numberofstrings":6,"notes":["D","A","F","C","G","D"],"capo":0,"stringnotes":["D3","A2","F2","C2","G1","D1"],"comments":["Stave 1:","Stave 2:","Stave 3:","Stave 4:","Stave 5:","Stave 6:","Stave 7:"],"timing":[["W","W","W","W","W","W","W","W","W","W","W","W","W","W","W","W","W","W","W","W","W","W","W","W","W","W","W","W","W","W","W","W","W","W","W","W","W","W","W","W","W"],["W","W","W","W","W","W","W","W","W","W","W","W","W","W","W","W","W","W","W","W","W","W","W","W","W","W","W","W","W","W","W","W"],["W","W","W","W","W","W","W","W","W","W","W","W","W","W","W","W","W","W","W","W","W","W","W","W","W","W","W","W","W","W","W","W"],["W","W","W","W","W","W","W","W","W","W","W","W","W","W","W","W","W","W","W","W","W","W","W","W","W","W","W","W","W","W","W","W"],["W","W","W","W","W","W","W","W","W","W","W","W","W","W","W","W","W","W","W","W","W","W","W","W","W","W","W","W","W","W","W","W"],["W","W","W","W","W","W","W","W","W","W","W","W","W","W","W","W","W","W","W","W","W","W","W"],["W","W","W","W","W","W","W","W","W","W","W","W","W","W","W","W","W","W","W","W","W","W","W","W","W","W","W","W"]],"timingvisible":false,"tabcounter":28,"stave":6,"totalstaves":7,"instrument":"6guitar","selectedtuning":"Full Step Down","version":"13"}

Member for

2 months
Submitted by takeopg on Mon, 2021-09-20 23:52