KAGE - Boss Fight - Guitarra 1

01234567891011121314151617181920212223
E
B
G
D
A
E
B
0 1 2 3 4 5 6 7 8 9 10 11 12 13 14 15 16 17 18 19 20 21 22 23
(/) Slide Up  (\) Slide Down  (h) Hammer On  (p) Pull Off  (b) Bend (r) Release (v) Vibrato

Capo Fret 2

Stave 1:

D|--------------------------------2--2--4--5--7--9--2--4--5--2--9--2--7--2--4--5--4--2--4--5--2--9--2--7--2--5--2--4--5--4--2--
A|--------------------------6--6-----------------------------------------------------------------------------------------------
F|--6--6--7--7--8--8--9--9-----------------------------------------------------------------------------------------------------
C|-----------------------------------------------------------------------------------------------------------------------------
G|-----------------------------------------------------------------------------------------------------------------------------
D|-----------------------------------------------------------------------------------------------------------------------------

Stave 2:

D|--14--2--2--12--2--2--10--2--2--9--2--2--7--5--4--2--12--2--2--10--2--2--9--2--2--7--2--5--4--2-----2--
A|-------------------------------------------------------------------------------------------------4-----
F|-------------------------------------------------------------------------------------------------------
C|-------------------------------------------------------------------------------------------------------
G|-------------------------------------------------------------------------------------------------------
D|-------------------------------------------------------------------------------------------------------

Stave 3:

D|----------------------------7----------------------------------------------------------------2--2--4--5--7--9--2--
A|-----7--9--10--7-----9--10-----10--9--------7--9--10--9--7-----------------------------6--6-----------------------
F|--7---------------9-------------------9--7------------------7--6--6--7--7--8--8--9--9-----------------------------
C|------------------------------------------------------------------------------------------------------------------
G|------------------------------------------------------------------------------------------------------------------
D|------------------------------------------------------------------------------------------------------------------

							http://www.guitartabcreator.com
Chords

Instruments
{"strings":[[[".",".",".",".",".",".",".",".",".",".",2,2,4,5,7,9,2,4,5,2,9,2,7,2,4,5,4,2,4,5,2,9,2,7,2,5,2,4,5,4,2],[".",".",".",".",".",".",".",".",6,6,".",".",".",".",".",".",".",".",".",".",".",".",".",".",".",".",".",".",".",".",".",".",".",".",".",".",".",".",".",".","."],[6,6,7,7,8,8,9,9,".",".",".",".",".",".",".",".",".",".",".",".",".",".",".",".",".",".",".",".",".",".",".",".",".",".",".",".",".",".",".",".","."],[".",".",".",".",".",".",".",".",".",".",".",".",".",".",".",".",".",".",".",".",".",".",".",".",".",".",".",".",".",".",".",".",".",".",".",".",".",".",".",".","."],[".",".",".",".",".",".",".",".",".",".",".",".",".",".",".",".",".",".",".",".",".",".",".",".",".",".",".",".",".",".",".",".",".",".",".",".",".",".",".",".","."],[".",".",".",".",".",".",".",".",".",".",".",".",".",".",".",".",".",".",".",".",".",".",".",".",".",".",".",".",".",".",".",".",".",".",".",".",".",".",".",".","."]],[[14,2,2,12,2,2,10,2,2,9,2,2,7,5,4,2,12,2,2,10,2,2,9,2,2,7,2,5,4,2,".",2],[".",".",".",".",".",".",".",".",".",".",".",".",".",".",".",".",".",".",".",".",".",".",".",".",".",".",".",".",".",".",4,"."],[".",".",".",".",".",".",".",".",".",".",".",".",".",".",".",".",".",".",".",".",".",".",".",".",".",".",".",".",".",".",".","."],[".",".",".",".",".",".",".",".",".",".",".",".",".",".",".",".",".",".",".",".",".",".",".",".",".",".",".",".",".",".",".","."],[".",".",".",".",".",".",".",".",".",".",".",".",".",".",".",".",".",".",".",".",".",".",".",".",".",".",".",".",".",".",".","."],[".",".",".",".",".",".",".",".",".",".",".",".",".",".",".",".",".",".",".",".",".",".",".",".",".",".",".",".",".",".",".","."]],[[".",".",".",".",".",".",".",".",7,".",".",".",".",".",".",".",".",".",".",".",".",".",".",".",".",".",".",".",".",2,2,4,5,7,9,2],[".",7,9,10,7,".",9,10,".",10,9,".",".",7,9,10,9,7,".",".",".",".",".",".",".",".",".",6,6,".",".",".",".",".",".","."],[7,".",".",".",".",9,".",".",".",".",".",9,7,".",".",".",".",".",7,6,6,7,7,8,8,9,9,".",".",".",".",".",".",".",".","."],[".",".",".",".",".",".",".",".",".",".",".",".",".",".",".",".",".",".",".",".",".",".",".",".",".",".",".",".",".",".",".",".",".",".",".","."],[".",".",".",".",".",".",".",".",".",".",".",".",".",".",".",".",".",".",".",".",".",".",".",".",".",".",".",".",".",".",".",".",".",".",".","."],[".",".",".",".",".",".",".",".",".",".",".",".",".",".",".",".",".",".",".",".",".",".",".",".",".",".",".",".",".",".",".",".",".",".",".","."]]],"numberofstrings":6,"notes":["D","A","F","C","G","D"],"capo":"2","stringnotes":["D3","A2","F2","C2","G1","D1"],"comments":["Stave 1:","Stave 2:","Stave 3:"],"timing":[["W","W","W","W","W","W","W","W","W","W","W","W","W","W","W","W","W","W","W","W","W","W","W","W","W","W","W","W","W","W","W","W","W","W","W","W","W","W","W","W","W"],["W","W","W","W","W","W","W","W","W","W","W","W","W","W","W","W","W","W","W","W","W","W","W","W","W","W","W","W","W","W","W","W"],["W","W","W","W","W","W","W","W","W","W","W","W","W","W","W","W","W","W","W","W","W","W","W","W","W","W","W","W","W","W","W","W","W","W","W","W"]],"timingvisible":false,"tabcounter":36,"stave":2,"totalstaves":3,"instrument":"6guitar","selectedtuning":"Full Step Down","version":"13"}

Member for

2 months
Submitted by takeopg on Sun, 2021-10-10 12:09