Mary Had A Little Lamb (key of C -- 1 string)

Chords

01234567891011121314151617181920212223
E
B
G
D
A
E
B
0 1 2 3 4 5 6 7 8 9 10 11 12 13 14 15 16 17 18 19 20 21 22 23
(/) Slide Up  (\) Slide Down  (h) Hammer On  (p) Pull Off  (b) Bend (r) Release (v) Vibrato

Stave 1:

E|-----------------------|--
B|--5--3--1--3--5--5--5--|--
G|-----------------------|--
D|-----------------------|--
A|-----------------------|--
E|-----------------------|--

Stave 2:

E|--------------------|--
B|--3--3--3--5--8--8--|--
G|--------------------|--
D|--------------------|--
A|--------------------|--
E|--------------------|--

Stave 3:

E|-----------------------|--
B|--5--3--1--3--5--5--5--|--
G|-----------------------|--
D|-----------------------|--
A|-----------------------|--
E|-----------------------|--

Stave 4:

E|--------------------|--
B|--5--3--3--5--3--1--|--
G|--------------------|--
D|--------------------|--
A|--------------------|--
E|--------------------|--

							http://www.guitartabcreator.com
Instruments
{"strings":[[[".",".",".",".",".",".",".","|"],[5,3,1,3,5,5,5,"|"],[".",".",".",".",".",".",".","|"],[".",".",".",".",".",".",".","|"],[".",".",".",".",".",".",".","|"],[".",".",".",".",".",".",".","|"]],[[".",".",".",".",".",".","|"],[3,3,3,5,8,8,"|"],[".",".",".",".",".",".","|"],[".",".",".",".",".",".","|"],[".",".",".",".",".",".","|"],[".",".",".",".",".",".","|"]],[[".",".",".",".",".",".",".","|"],[5,3,1,3,5,5,5,"|"],[".",".",".",".",".",".",".","|"],[".",".",".",".",".",".",".","|"],[".",".",".",".",".",".",".","|"],[".",".",".",".",".",".",".","|"]],[[".",".",".",".",".",".","|"],[5,3,3,5,3,1,"|"],[".",".",".",".",".",".","|"],[".",".",".",".",".",".","|"],[".",".",".",".",".",".","|"],[".",".",".",".",".",".","|"]]],"numberofstrings":6,"notes":["E","B","G","D","A","E","B"],"capo":0,"stringnotes":["E4","B3","G3","D3","A2","E2"],"comments":["Stave 1:","Stave 2:","Stave 3:","Stave 4:"],"timing":[["W","W","W","W","W","W","W"],["W","W","W","W","W","W"],["W","W","W","W","W","W","W"],["W","W","W","W","W","W"]],"timingvisible":false,"tabcounter":7,"stave":3,"totalstaves":4,"instrument":"6guitar","selectedtuning":"6_standard","version":"13"}

Member for

2 weeks 5 days
Submitted by takahashikyoto on Fri, 2020-10-16 02:18