Jingle Bells 1 string (2)

Chords

01234567891011121314151617181920212223
E
B
G
D
A
E
B
0 1 2 3 4 5 6 7 8 9 10 11 12 13 14 15 16 17 18 19 20 21 22 23
(/) Slide Up  (\) Slide Down  (h) Hammer On  (p) Pull Off  (b) Bend (r) Release (v) Vibrato

Stave 1:

E|--4--4--4--|--4--4--4--|--4--7--0--2--4--|--
B|-----------|-----------|-----------------|--
G|-----------|-----------|-----------------|--
D|-----------|-----------|-----------------|--
A|-----------|-----------|-----------------|--
E|-----------|-----------|-----------------|--

Stave 2:

E|--5--5--5--|--5--5--4--4--|--4--4--4--|--2--2--4--2--|--7--|--
B|-----------|--------------|-----------|--------------|-----|--
G|-----------|--------------|-----------|--------------|-----|--
D|-----------|--------------|-----------|--------------|-----|--
A|-----------|--------------|-----------|--------------|-----|--
E|-----------|--------------|-----------|--------------|-----|--

Stave 3:

E|--4--4--4--|--4--4--4--|--4--7--0--2--4--|--
B|-----------|-----------|-----------------|--
G|-----------|-----------|-----------------|--
D|-----------|-----------|-----------------|--
A|-----------|-----------|-----------------|--
E|-----------|-----------|-----------------|--

Stave 4:

E|--5--5--5--|--5--5--4--4--|--4--4--|--7--7--|--5--2--0--|--
B|-----------|--------------|--------|--------|-----------|--
G|-----------|--------------|--------|--------|-----------|--
D|-----------|--------------|--------|--------|-----------|--
A|-----------|--------------|--------|--------|-----------|--
E|-----------|--------------|--------|--------|-----------|--

							http://www.guitartabcreator.com
Instruments
{"strings":[[[4,4,4,"|",4,4,4,"|",4,7,0,2,4,"|"],[".",".",".","|",".",".",".","|",".",".",".",".",".","|"],[".",".",".","|",".",".",".","|",".",".",".",".",".","|"],[".",".",".","|",".",".",".","|",".",".",".",".",".","|"],[".",".",".","|",".",".",".","|",".",".",".",".",".","|"],[".",".",".","|",".",".",".","|",".",".",".",".",".","|"]],[[5,5,5,"|",5,5,4,4,"|",4,4,4,"|",2,2,4,2,"|",7,"|"],[".",".",".","|",".",".",".",".","|",".",".",".","|",".",".",".",".","|",".","|"],[".",".",".","|",".",".",".",".","|",".",".",".","|",".",".",".",".","|",".","|"],[".",".",".","|",".",".",".",".","|",".",".",".","|",".",".",".",".","|",".","|"],[".",".",".","|",".",".",".",".","|",".",".",".","|",".",".",".",".","|",".","|"],[".",".",".","|",".",".",".",".","|",".",".",".","|",".",".",".",".","|",".","|"]],[[4,4,4,"|",4,4,4,"|",4,7,0,2,4,"|"],[".",".",".","|",".",".",".","|",".",".",".",".",".","|"],[".",".",".","|",".",".",".","|",".",".",".",".",".","|"],[".",".",".","|",".",".",".","|",".",".",".",".",".","|"],[".",".",".","|",".",".",".","|",".",".",".",".",".","|"],[".",".",".","|",".",".",".","|",".",".",".",".",".","|"]],[[5,5,5,"|",5,5,4,4,"|",4,4,"|",7,7,"|",5,2,0,"|"],[".",".",".","|",".",".",".",".","|",".",".","|",".",".","|",".",".",".","|"],[".",".",".","|",".",".",".",".","|",".",".","|",".",".","|",".",".",".","|"],[".",".",".","|",".",".",".",".","|",".",".","|",".",".","|",".",".",".","|"],[".",".",".","|",".",".",".",".","|",".",".","|",".",".","|",".",".",".","|"],[".",".",".","|",".",".",".",".","|",".",".","|",".",".","|",".",".",".","|"]]],"numberofstrings":6,"notes":["E","B","G","D","A","E","B"],"capo":0,"stringnotes":["E4","B3","G3","D3","A2","E2"],"comments":["Stave 1:","Stave 2:","Stave 3:","Stave 4:"],"timing":[["W","W","W",null,"W","W","W",null,"W","W","W","W","W"],["W","W","W",null,"W","W","W","W",null,"W","W","W",null,"W","W","W","W",null,"W"],["W","W","W",null,"W","W","W",null,"W","W","W","W","W"],["W","W","W",null,"W","W","W","W",null,"W","W",null,"W","W",null,"W","W","W"]],"timingvisible":false,"tabcounter":19,"stave":3,"totalstaves":4,"instrument":"6guitar","selectedtuning":"6_standard","version":"13"}

Member for

1 month 2 weeks
Submitted by takahashikyoto on Sun, 2020-10-04 22:53