Jingle Bells 1 string (1)

Chords

01234567891011121314151617181920212223
E
B
G
D
A
E
B
0 1 2 3 4 5 6 7 8 9 10 11 12 13 14 15 16 17 18 19 20 21 22 23
(/) Slide Up  (\) Slide Down  (h) Hammer On  (p) Pull Off  (b) Bend (r) Release (v) Vibrato

Stave 1:

E|-----------|-----------|--------------|-----|--
B|--5--5--5--|--5--5--5--|--5--8--1--3--|--5--|--
G|-----------|-----------|--------------|-----|--
D|-----------|-----------|--------------|-----|--
A|-----------|-----------|--------------|-----|--
E|-----------|-----------|--------------|-----|--

Stave 2:

E|--------------|-----------------|--------------|--------|--
B|--6--6--6--6--|--6--5--5--5--5--|--5--3--3--5--|--3--8--|--
G|--------------|-----------------|--------------|--------|--
D|--------------|-----------------|--------------|--------|--
A|--------------|-----------------|--------------|--------|--
E|--------------|-----------------|--------------|--------|--

Stave 3:

E|-----------|-----------|--------------|-----|--
B|--5--5--5--|--5--5--5--|--5--8--1--3--|--5--|--
G|-----------|-----------|--------------|-----|--
D|-----------|-----------|--------------|-----|--
A|-----------|-----------|--------------|-----|--
E|-----------|-----------|--------------|-----|--

Stave 4:

E|--------------|-----------------|--------------|-----|--
B|--6--6--6--6--|--6--5--5--5--5--|--8--8--6--3--|--1--|--
G|--------------|-----------------|--------------|-----|--
D|--------------|-----------------|--------------|-----|--
A|--------------|-----------------|--------------|-----|--
E|--------------|-----------------|--------------|-----|--

							http://www.guitartabcreator.com
Instruments
{"strings":[[[".",".",".","|",".",".",".","|",".",".",".",".","|",".","|"],[5,5,5,"|",5,5,5,"|",5,8,1,3,"|",5,"|"],[".",".",".","|",".",".",".","|",".",".",".",".","|",".","|"],[".",".",".","|",".",".",".","|",".",".",".",".","|",".","|"],[".",".",".","|",".",".",".","|",".",".",".",".","|",".","|"],[".",".",".","|",".",".",".","|",".",".",".",".","|",".","|"]],[[".",".",".",".","|",".",".",".",".",".","|",".",".",".",".","|",".",".","|"],[6,6,6,6,"|",6,5,5,5,5,"|",5,3,3,5,"|",3,8,"|"],[".",".",".",".","|",".",".",".",".",".","|",".",".",".",".","|",".",".","|"],[".",".",".",".","|",".",".",".",".",".","|",".",".",".",".","|",".",".","|"],[".",".",".",".","|",".",".",".",".",".","|",".",".",".",".","|",".",".","|"],[".",".",".",".","|",".",".",".",".",".","|",".",".",".",".","|",".",".","|"]],[[".",".",".","|",".",".",".","|",".",".",".",".","|",".","|"],[5,5,5,"|",5,5,5,"|",5,8,1,3,"|",5,"|"],[".",".",".","|",".",".",".","|",".",".",".",".","|",".","|"],[".",".",".","|",".",".",".","|",".",".",".",".","|",".","|"],[".",".",".","|",".",".",".","|",".",".",".",".","|",".","|"],[".",".",".","|",".",".",".","|",".",".",".",".","|",".","|"]],[[".",".",".",".","|",".",".",".",".",".","|",".",".",".",".","|",".","|"],[6,6,6,6,"|",6,5,5,5,5,"|",8,8,6,3,"|",1,"|"],[".",".",".",".","|",".",".",".",".",".","|",".",".",".",".","|",".","|"],[".",".",".",".","|",".",".",".",".",".","|",".",".",".",".","|",".","|"],[".",".",".",".","|",".",".",".",".",".","|",".",".",".",".","|",".","|"],[".",".",".",".","|",".",".",".",".",".","|",".",".",".",".","|",".","|"]]],"numberofstrings":6,"notes":["E","B","G","D","A","E","B"],"capo":0,"stringnotes":["E4","B3","G3","D3","A2","E2"],"comments":["Stave 1:","Stave 2:","Stave 3:","Stave 4:"],"timing":[["W","W","W",null,"W","W","W",null,"W","W","W","W",null,"W"],["W","W","W","W",null,"W","W","W","W","W",null,"W","W","W","W",null,"W","W"],["W","W","W",null,"W","W","W",null,"W","W","W","W",null,"W"],["W","W","W","W",null,"W","W","W","W","W",null,"W","W","W","W",null,"W"]],"timingvisible":false,"tabcounter":18,"stave":3,"totalstaves":4,"instrument":"6guitar","selectedtuning":"6_standard","version":"13"}

Member for

1 month 2 weeks
Submitted by takahashikyoto on Sun, 2020-10-04 22:26