Sound will begin in 5 seconds

You (INCOMPLETE)

Chords
01234567891011121314151617181920212223
E
B
G
D
A
E
B
0 1 2 3 4 5 6 7 8 9 10 11 12 13 14 15 16 17 18 19 20 21 22 23
Song Science #1: How Pros Use 6 Chords to Write Hit Songs
(/) Slide Up  (\) Slide Down  (h) Hammer On  (p) Pull Off  (b) Bend (r) Release (v) Vibrato

Stave 1:

E|--8---8------3--3-----5--5-----|-----8---8------3--3-----1--|--x--x-----x--x-----x--x--
B|--8---8------3--3-----5--5-----|-----8---8------3--3-----1--|--x--x-----x--x-----x--x--
G|--9---9------4--4-----5--5-----|-----9---9------4--4-----2--|--x--x-----x--x-----x--x--
D|--10--10-----5--5-----7--7-----|-----10--10-----5--5-----3--|--x--x-----x--x-----x--x--
A|-------------------------------|----------------------------|--x--x-----x--x-----x--x--
E|-------------------------------|----------------------------|--------------------------

Stave 2:

E|--8------3-----5-----1--|--------|-----8--------------------|--
B|--8------3-----5-----1--|--------|--------8--10-------------|--
G|--9------4-----5-----2--|--------|---------------9--7\5-----|--
D|--10-----5-----7-----3--|--------|--------------------------|--
A|------------------------|--------|--------------------------|--
E|------------------------|--------|--------------------------|--

http://www.guitartabcreator.com
Guitar Tab Creator is intended to store guitar tab created through the tool. It currently does not support in-line text editing. Any text you place in here will be lost. If you need to comment on your tab, please use the "Tab Notes" section located below.