1st Blues solo

Chords

01234567891011121314151617181920212223
E
B
G
D
A
E
B
0 1 2 3 4 5 6 7 8 9 10 11 12 13 14 15 16 17 18 19 20 21 22 23
(/) Slide Up  (\) Slide Down  (h) Hammer On  (p) Pull Off  (b) Bend (r) Release (v) Vibrato

Stave 1:

E|----------------10---------
B|-----------10--------12v---
G|---10/11-------------------
D|---------------------------
A|---------------------------
E|---------------------------

Stave 2:

E|--------------------------
B|---7---5------------------
G|-----------7---4---7b7v---
D|--------------------------
A|--------------------------
E|--------------------------

Stave 3:

E|--------------------
B|---7p6p5-------4v---
G|-----------7--------
D|--------------------
A|--------------------
E|--------------------

Stave 4:

E|---------------------------
B|---------------------------
G|---------------------------
D|---7---5-------------------
A|-----------7p6p5---3-------
E|-----------------------5---

Stave 5:

E|-----------------------------------------------------------5---7b
B|-------------------------------------5b7---5-------5---7---------
G|---------------------5-------5---7-------------7-----------------
D|-------------5---7-------7---------------------------------------
A|---3/5---7-------------------------------------------------------
E|-----------------------------------------------------------------

Stave 6:

E|---7b5------------------------------------------------
B|---------7---5---7---9--------------------------------
G|-------------------------7---9------------------------
D|---------------------------------9v---9---7-------7---
A|----------------------------------------------9-------
E|------------------------------------------------------

Stave 7:

E|-------------------------------------------------
B|-------------------------------------------------
G|---4---7-----------4b7b9-------7---9---7---9---7b
D|-----------4---7-----------9---------------------
A|-------------------------------------------------
E|-------------------------------------------------

Stave 8:

E|----------------------------------------------8---10b
B|-------------------------------------8---10----------
G|---------------------5---7---8---9-------------------
D|-----------3---5/7-----------------------------------
A|---3---5---------------------------------------------
E|-----------------------------------------------------

Stave 9:

E|---5---7-----------5---7-----------5---7b10---7---7---
B|-----------5---7-----------5---7----------------------
G|------------------------------------------------------
D|------------------------------------------------------
A|------------------------------------------------------
E|------------------------------------------------------

Stave 10:

E|------------------10---12---12---10--------10---12b
B|--------10---12-----------------------12-----------
G|---11----------------------------------------------
D|---------------------------------------------------
A|---------------------------------------------------
E|---------------------------------------------------

Stave 11:

E|--------------------------------7------
B|-----------7---9---7-------10-------10b
G|---7---9---------------9---------------
D|---------------------------------------
A|---------------------------------------
E|---------------------------------------

Stave 12:

E|------------------10---12---14---14---14b
B|--------10---12--------------------------
G|---11------------------------------------
D|-----------------------------------------
A|-----------------------------------------
E|-----------------------------------------

							http://www.guitartabcreator.com
genre
Instruments
{"strings":[[[".",".",".",".",10,".","."],[".",".",".",10,".",12,"v"],[10,"/",11,".",".",".","."],[".",".",".",".",".",".","."],[".",".",".",".",".",".","."],[".",".",".",".",".",".","."]],[[".",".",".",".",".",".",".","."],[7,5,".",".",".",".",".","."],[".",".",7,4,7,"b",7,"v"],[".",".",".",".",".",".",".","."],[".",".",".",".",".",".",".","."],[".",".",".",".",".",".",".","."]],[[".",".",".",".",".",".",".","."],[7,"p",6,"p",5,".",4,"v"],[".",".",".",".",".",7,".","."],[".",".",".",".",".",".",".","."],[".",".",".",".",".",".",".","."],[".",".",".",".",".",".",".","."]],[[".",".",".",".",".",".",".",".","."],[".",".",".",".",".",".",".",".","."],[".",".",".",".",".",".",".",".","."],[7,5,".",".",".",".",".",".","."],[".",".",7,"p",6,"p",5,3,"."],[".",".",".",".",".",".",".",".",5]],[[".",".",".",".",".",".",".",".",".",".",".",".",".",".",".",".",".",5,7,"b"],[".",".",".",".",".",".",".",".",".",".",5,"b",7,5,".",5,7,".",".","."],[".",".",".",".",".",".",5,".",5,7,".",".",".",".",7,".",".",".",".","."],[".",".",".",".",5,7,".",7,".",".",".",".",".",".",".",".",".",".",".","."],[3,"/",5,7,".",".",".",".",".",".",".",".",".",".",".",".",".",".",".","."],[".",".",".",".",".",".",".",".",".",".",".",".",".",".",".",".",".",".",".","."]],[[7,"b",5,".",".",".",".",".",".",".",".",".",".",".","."],[".",".",".",7,5,7,9,".",".",".",".",".",".",".","."],[".",".",".",".",".",".",".",7,9,".",".",".",".",".","."],[".",".",".",".",".",".",".",".",".",9,"v",9,7,".",7],[".",".",".",".",".",".",".",".",".",".",".",".",".",9,"."],[".",".",".",".",".",".",".",".",".",".",".",".",".",".","."]],[[".",".",".",".",".",".",".",".",".",".",".",".",".",".",".","."],[".",".",".",".",".",".",".",".",".",".",".",".",".",".",".","."],[4,7,".",".",4,"b",7,"b",9,".",7,9,7,9,7,"b"],[".",".",4,7,".",".",".",".",".",9,".",".",".",".",".","."],[".",".",".",".",".",".",".",".",".",".",".",".",".",".",".","."],[".",".",".",".",".",".",".",".",".",".",".",".",".",".",".","."]],[[".",".",".",".",".",".",".",".",".",".",".",".",8,10,"b"],[".",".",".",".",".",".",".",".",".",".",8,10,".",".","."],[".",".",".",".",".",".",5,7,8,9,".",".",".",".","."],[".",".",3,5,"/",7,".",".",".",".",".",".",".",".","."],[3,5,".",".",".",".",".",".",".",".",".",".",".",".","."],[".",".",".",".",".",".",".",".",".",".",".",".",".",".","."]],[[5,7,".",".",5,7,".",".",5,7,"b",10,7,7],[".",".",5,7,".",".",5,7,".",".",".",".",".","."],[".",".",".",".",".",".",".",".",".",".",".",".",".","."],[".",".",".",".",".",".",".",".",".",".",".",".",".","."],[".",".",".",".",".",".",".",".",".",".",".",".",".","."],[".",".",".",".",".",".",".",".",".",".",".",".",".","."]],[[".",".",".",10,12,12,10,".",10,12,"b"],[".",10,12,".",".",".",".",12,".",".","."],[11,".",".",".",".",".",".",".",".",".","."],[".",".",".",".",".",".",".",".",".",".","."],[".",".",".",".",".",".",".",".",".",".","."],[".",".",".",".",".",".",".",".",".",".","."]],[[".",".",".",".",".",".",".",7,".","."],[".",".",7,9,7,".",10,".",10,"b"],[7,9,".",".",".",9,".",".",".","."],[".",".",".",".",".",".",".",".",".","."],[".",".",".",".",".",".",".",".",".","."],[".",".",".",".",".",".",".",".",".","."]],[[".",".",".",10,12,14,14,14,"b"],[".",10,12,".",".",".",".",".","."],[11,".",".",".",".",".",".",".","."],[".",".",".",".",".",".",".",".","."],[".",".",".",".",".",".",".",".","."],[".",".",".",".",".",".",".",".","."]]],"numberofstrings":6,"notes":["E","B","G","D","A","E","B"],"capo":0,"stringnotes":["E4","B3","G3","D3","A2","E2"],"comments":["Stave 1:","Stave 2:","Stave 3:","Stave 4:","Stave 5:","Stave 6:","Stave 7:","Stave 8:","Stave 9:","Stave 10:","Stave 11:","Stave 12:"],"timing":[["W",null,"W","W","W","W"],["W","W","W","W","W",null,"W"],["W",null,"W",null,"W","W","W"],["W","W","W",null,"W",null,"W","W","W"],["W",null,"W","W","W","W","W","W","W","W","W",null,"W","W","W","W","W","W","W"],["W",null,"W","W","W","W","W","W","W","W",null,"W","W","W","W"],["W","W","W","W","W",null,"W",null,"W","W","W","W","W","W","W"],["W","W","W","W",null,"W","W","W","W","W","W","W","W","W"],["W","W","W","W","W","W","W","W","W","W",null,"W","W","W","W","W","W","W","W"],["W","W","W","W","W","W","W","W","W","W"],["W","W","W","W","W","W","W","W","W"],["W","W","W","W","W","W","W","W"]],"timingvisible":false,"tabcounter":9,"stave":11,"totalstaves":12,"instrument":"6guitar","selectedtuning":"6_standard","version":"13"}

Member for

1 month
Submitted by Taf on Thu, 2020-09-24 11:45