Sound will begin in 5 seconds

Rocky Mountain High

Chords
01234567891011121314151617181920212223
E
B
G
D
A
E
B
0 1 2 3 4 5 6 7 8 9 10 11 12 13 14 15 16 17 18 19 20 21 22 23
Song Science #1: How Pros Use 6 Chords to Write Hit Songs
(/) Slide Up  (\) Slide Down  (h) Hammer On  (p) Pull Off  (b) Bend (r) Release (v) Vibrato

Capo Fret 2

Stave 1:

E|--2--------------------------0--0--0--
B|--3--------------------------0--1--2--
G|--2--2h4--2-------2----------0--0--2--
D|--0----------0h4-----4--2p0--2--2--2--
A|-----------------------------2--3--0--
E|-----------------------------0--------

Stave 2:

E|--5--3--
B|--7--3--
G|--7--4--
D|--------
A|--------
E|--------

Stave 3:

E|--10--
B|--7---
G|--7---
D|------
A|------
E|------

Stave 4:

E|-----3--5--10--
B|-----5--7--8---
G|-----4--6--7---
D|---------------
A|---------------
E|---------------

http://www.guitartabcreator.com
Guitar Tab Creator is intended to store guitar tab created through the tool. It currently does not support in-line text editing. Any text you place in here will be lost. If you need to comment on your tab, please use the "Tab Notes" section located below.