Sound will begin in 5 seconds

Rock Around the clock Solo

01234567891011121314151617181920212223
E
B
G
D
A
E
B
0 1 2 3 4 5 6 7 8 9 10 11 12 13 14 15 16 17 18 19 20 21 22 23
Song Science #1: How Pros Use 6 Chords to Write Hit Songs
(/) Slide Up  (\) Slide Down  (h) Hammer On  (p) Pull Off  (b) Bend (r) Release (v) Vibrato

Stave 1:

E|-------------------------------------------------
B|--5/5--5--5--7--5--5--5--8--5--7--5--5--5--0--0--
G|-------------------------------------------------
D|-------------------------------------------------
A|-------------------------------------------------
E|-------------------------------------------------

Stave 2:

E|--------------------------------------------------
B|--5--5--5--5--7--7--5--5--8--8--5--5--7--7--5--5--
G|--------------------------------------------------
D|--------------------------------------------------
A|--------------------------------------------------
E|--------------------------------------------------

Stave 3:

E|--------------
B|--8--5--7--5--
G|--------------
D|--------------
A|--------------
E|--------------

Stave 4:

E|--5--7--5-----
B|-----------7--
G|--------------
D|--------------
A|--------------
E|--------------

Stave 5:

E|-------------------------------------
B|--5-------------5--7--6--5-----------
G|-----6--6--5h6--------------8--7--6--
D|-------------------------------------
A|-------------------------------------
E|-------------------------------------

Stave 6:

E|--7--6--5--4-------------------------------------------------------------------------------------
B|--------------7--6--5--4-------------------------------------------------------------------------
G|--------------------------7--6--5--4-------------------------------------------------------------
D|--------------------------------------7--6--5--4-------------------------------------------------
A|--------------------------------------------------7--6--5--4----------------4--5--7-----4--5--7--
E|--------------------------------------------------------------7--6--5--4/5-----------5-----------

Stave 7:

E|--5--5--5--3--3--3--2--2--2--1--1--1--0--0--3--4--5--
B|-----------------------------------------------------
G|-----------------------------------------------------
D|-----------------------------------------------------
A|-----------------------------------------------------
E|-----------------------------------------------------

http://www.guitartabcreator.com
Guitar Tab Creator is intended to store guitar tab created through the tool. It currently does not support in-line text editing. Any text you place in here will be lost. If you need to comment on your tab, please use the "Tab Notes" section located below.