Sound will begin in 5 seconds

DSS

Chords
01234567891011121314151617181920212223
E
B
G
D
A
E
B
0 1 2 3 4 5 6 7 8 9 10 11 12 13 14 15 16 17 18 19 20 21 22 23
Song Science #1: How Pros Use 6 Chords to Write Hit Songs
(/) Slide Up  (\) Slide Down  (h) Hammer On  (p) Pull Off  (b) Bend (r) Release (v) Vibrato

Stave 1:

E|--------4--9---2-----------------4--9---2--
B|--------5--10--2-----------------5--10--2--
G|--4--6--6--11--2--------4--7--6--6--11--2--
D|--2--4--4--9---4--------2--5--4--4--9---4--
A|--0--5--4--9---0--------0--5--5--4--9---0--
D|--------4--9---0-----------5-----4--9---0--

Stave 2:

E|--2-----4--9---2--
B|--2-----5--10--2--
G|--2--6--6--11--2--
D|-----4--4--9---4--
A|-----5--4--9---0--
D|--------4--9---0--

Stave 3:

E|---------------------7--------------------------------------------------
B|--------------7--10-----10--9--7-----7-----------------7----------------
G|--6--4--5--6----------------------------9--2-----2--------9--2-----2/6--
D|----------------------------------7-----------4-----7-----------4-------
A|------------------------------------------------------------------------
D|------------------------------------------------------------------------

Stave 4:

E|------------------------------------------------------------------------------
B|------------------------------------------------------------------------------
G|---------6--------------------------------7--6-----7--6-----7--6-----7--6-----
D|--11--9-----------------------------------------------------------------------
A|--9---7-----4--2--4--5--5--4--2--0--2--4--------9--------9--------9--------9--
D|--9---7-----4--2--4-----------------------------------------------------------

Stave 5:

E|------------------------------------------------------
B|--------------------------------------------7-----10--
G|-----------------------------------------6-----9------
D|--9--7--6---------------------------------------------
A|--7--5-----4--2--4--5--5--4--2--0--2--4---------------
D|--7--5-----4--2--4------------------------------------

Stave 6:

E|------2--2--
B|------2--2--
G|------2--2--
D|--11--4-----
A|--9---0-----
D|--9---0-----

Stave 7:

E|---------------2--
B|---------------2--
G|---------------2--
D|--11--4--9--7--4--
A|--9---2--7--5--0--
D|--9---2--7--5--0--

http://www.guitartabcreator.com
Guitar Tab Creator is intended to store guitar tab created through the tool. It currently does not support in-line text editing. Any text you place in here will be lost. If you need to comment on your tab, please use the "Tab Notes" section located below.