Sound will begin in 5 seconds

He's a Pirate

Chords
01234567891011121314151617181920212223
E
B
G
D
A
E
B
0 1 2 3 4 5 6 7 8 9 10 11 12 13 14 15 16 17 18 19 20 21 22 23
Song Science #1: How Pros Use 6 Chords to Write Hit Songs
(/) Slide Up  (\) Slide Down  (h) Hammer On  (p) Pull Off  (b) Bend (r) Release (v) Vibrato

Stave 1:

E|--------------------------------------|--------------------------------------|-----------------------
B|--------------------------------------|--------------------------------------|-----------------------
G|--------------------------------------|--------------------------------------|-----------------------
D|--0-----0--0-----0--0-----0--0--0--0--|--0-----0--0-----0--0-----0--0--0--0--|--0-----0--0-----0--0--
A|--------------------------------------|--------------------------------------|-----------------------
E|--------------------------------------|--------------------------------------|-----------------------

Stave 2:

E|-----------------|-----------------|--------------|-------------|--
B|-----------------|-----5--6--6-----|--6--8--5--5--|-------------|--
G|-----5--7--7-----|--7--------------|--------------|--7--5--5h7--|--
D|--7--------------|-----------------|--------------|-------------|--
A|-----------------|-----------------|--------------|-------------|--
E|-----------------|-----------------|--------------|-------------|--

Stave 3:

E|--------------|--------------|--------------|-----------|--
B|--------------|-----5--6--6--|--6--8--5--5--|-----------|--
G|-----5--7--7--|--7-----------|--------------|--7--5--7--|--
D|--7-----------|--------------|--------------|-----------|--
A|--------------|--------------|--------------|-----------|--
E|--------------|--------------|--------------|-----------|--

Stave 4:

E|--------------|--------------|-----5--6--6--|--5-----5-----|--
B|--------------|-----6--8--8--|--8-----------|-----8--------|--
G|-----5--7--7--|--7-----------|--------------|-----------7--|--
D|--7-----------|--------------|--------------|--------------|--
A|--------------|--------------|--------------|--------------|--
E|--------------|--------------|--------------|--------------|--

Stave 5:

E|--------------|-----5--------|--------------|-----------|--
B|-----5--6--6--|--8-----------|-----6--5--5--|--6-----5--|--
G|--7-----------|--------7-----|--7-----------|-----7-----|--
D|--------------|--------------|--------------|-----------|--
A|--------------|--------------|--------------|-----------|--
E|--------------|--------------|--------------|-----------|--

Stave 6:

E|--------------|--------------|--------------|-------------|--
B|--------------|-----5--6--6--|--6--8--5--5--|-------------|--
G|-----5--7--7--|--7-----------|--------------|--7--5--5h7--|--
D|--7-----------|--------------|--------------|-------------|--
A|--------------|--------------|--------------|-------------|--
E|--------------|--------------|--------------|-------------|--

Stave 7:

E|--------------|--------------|--------------|--------------|--
B|--------------|-----5--6--6--|--6--8--5--5--|--------------|--
G|-----5--7--7--|--7-----------|--------------|-----7--5--7--|--
D|--7-----------|--------------|--------------|--------------|--
A|--------------|--------------|--------------|--------------|--
E|--------------|--------------|--------------|--------------|--

Stave 8:

E|--------------|--------------|-----5--6--6--|--5-----5-----|--
B|--------------|-----6--8--8--|--8-----------|-----8--------|--
G|-----5--7--7--|--7-----------|--------------|-----------7--|--
D|--7-----------|--------------|--------------|--------------|--
A|--------------|--------------|--------------|--------------|--
E|--------------|--------------|--------------|--------------|--

Stave 9:

E|--------------|-----5--------|--------------|-----------|--
B|-----5--6--6--|--8-----------|-----6--5--5--|-----------|--
G|--7-----------|--------7-----|--7-----------|--7--6--7--|--
D|--------------|--------------|--------------|-----------|--
A|--------------|--------------|--------------|-----------|--
E|--------------|--------------|--------------|-----------|--

Stave 10:

E|--------------------------|--5-----------|--6-----------|--------------|--
B|-----5--6-----6--6--8-----|-----6--------|-----6--------|--5--5--6--5--|--
G|--7-----------------------|--------7-----|--------7-----|--6--6--7--6--|--
D|--------------------------|-----------7--|-----------8--|--7--7--8--7--|--
A|--------------------------|--------------|--------------|--------------|--
E|--------------------------|--------------|--------------|--------------|--

Stave 11:

E|--5-----5--5--5--6--5-----|--3--3--3--3--5--|--5--5--5--6--5--|--3--1--0-----|--
B|-----8--6--6--6--8--6-----|--5--5--5--5--6--|--6--6--6--8--6--|--3--3--2--3--|--
G|--------7--7--7--7--7-----|--5--5--5--5--7--|--7--7--7--7--7--|--3--2--2--2--|--
D|--------------------------|-----------------|-----------------|-----------0--|--
A|--------------------------|-----------------|-----------------|--------------|--
E|--------------------------|-----------------|-----------------|--------------|--

Stave 12:

E|-----------------|--5-----------|--------5-----|--
B|--------5--6--8--|-----8--6--5--|--6--8-----8--|--
G|-----7-----------|--------------|--------------|--
D|-----------------|--------------|--------------|--
A|-----------------|--------------|--------------|--
E|-----------------|--------------|--------------|--

Stave 13:

E|-----------5-----|--------------|--------------|--
B|-----6--8-----8--|--6--5--6--5--|-----5--------|--
G|-----------------|--------------|--7-----5--7--|--
D|-----------------|--------------|--------------|--
A|-----------------|--------------|--------------|--
E|-----------------|--------------|--------------|--

Stave 14:

E|-----------------|--------------|--5-----------|--
B|--------5--6--5--|--6--8--6--8--|-----8--6-----|--
G|-----7-----------|--------------|-----------7--|--
D|-----------------|--------------|--------------|--
A|-----------------|--------------|--------------|--
E|-----------------|--------------|--------------|--

Stave 15:

E|--------------|--5--6--------|--------------|--------|--
B|-----5--6--8--|-----------8--|--6--8--5-----|--5-----|--
G|--7-----------|--------7-----|-----------7--|-----6--|--
D|--------------|--------------|--------------|--------|--
A|--------------|--------------|--------------|--------|--
E|--------------|--------------|--------------|--------|--

Stave 16:

E|--5-----------|--6-----------|--5--5--5--5--3--|--
B|--6-----------|--8-----------|--6--6--6--6--5--|--
G|--7-----------|--7-----------|--7--7--7--7--5--|--
D|-----0--0--0--|-----0--0--0--|-----------------|--
A|--------------|--------------|-----------------|--
E|--------------|--------------|-----------------|--

Stave 17:

E|--3-----------|--1-----------|--0--1--0--0-----|--
B|--3-----------|--3-----------|--2--3--2--2--3--|--
G|--3-----------|--2-----------|--2--2--2--2--2--|--
D|-----0--0--0--|-----0--0--0--|--------------0--|--
A|--------------|--------------|-----------------|--
E|--------------|--------------|-----------------|--

Stave 18:

E|-----------5--|-----------6--|-----------5--|--8--5--5-----|--
B|-----5--6-----|-----5--6-----|-----5--6-----|-----------8--|--
G|--7-----------|--7-----------|--7-----------|--------------|--
D|--------------|--------------|--------------|--------------|--
A|--------------|--------------|--------------|--------------|--
E|--------------|--------------|--------------|--------------|--

Stave 19:

E|--5-----3--------------|--1-----------|--0--1--0-----|--
B|-----8--3--------------|--3-----------|--2--3--2--3--|--
G|--------3--------------|--2-----------|--2--2--2--2--|--
D|-----------0--0--0-----|-----0--0--0--|-----------0--|--
A|-----------------------|--------------|--------------|--
E|-----------------------|--------------|--------------|--

Stave 20:

E|--
B|--
G|--
D|--
A|--
E|--

http://www.guitartabcreator.com
Guitar Tab Creator is intended to store guitar tab created through the tool. It currently does not support in-line text editing. Any text you place in here will be lost. If you need to comment on your tab, please use the "Tab Notes" section located below.