Sound will begin in 5 seconds

Zor's Domain

Chords
01234567891011121314151617181920212223
E
B
G
D
A
E
B
0 1 2 3 4 5 6 7 8 9 10 11 12 13 14 15 16 17 18 19 20 21 22 23
Song Science #1: How Pros Use 6 Chords to Write Hit Songs
(/) Slide Up  (\) Slide Down  (h) Hammer On  (p) Pull Off  (b) Bend (r) Release (v) Vibrato

Stave 1:

E|--7-------------------5-----------------------3-----------------------3--2--
B|-----8-------------------6-----6-----------------4-----4-----------------1--
G|--------7-------------------5-----5-----------------3-----3--------------2--
D|-----------9-------------------------7-----------------------5-----------0--
A|--------------10------------------------8-----------------------6-----------
E|------------------10-----------------------8-----------------------6--------

Stave 2:

E|-----------------------------------------------------------------
B|--------10--7-----------------------10--7------------------8-----
G|-----7---------7--------7-----7------------7------------9-----9--
D|--9---------------9--------9-----9------------9-----10-----------
A|-----------------------------------------------------------------
E|-----------------------------------------------------------------

Stave 3:

E|-----------------------------------------------------
B|--------------------------------------7--8--7-----7--
G|-------------------7--9---------7--9-----------9-----
D|--7--9--10--9--10-----------10-----------------------
A|-----------------------------------------------------
E|-----------------------------------------------------

Stave 4:

E|------------------------7------------7-----------
B|--------10--7--------------7--8--10-----7--------
G|-----7------------7------------------------7--9--
D|--9------------9---------------------------------
A|-------------------------------------------------
E|-------------------------------------------------

Stave 5:

E|--12---------------------------------
B|---------12--------------12----------
G|-------------14--12--14------11------
D|---------------------------------12--
A|-------------------------------------
E|-------------------------------------

Stave 6:

E|--------------------------------------------------------------
B|-----------7--------------7-----------7-----------7--------7--
G|--------7--------------7-----------7-----------7--------7-----
D|--7--9-----------7--9--------7--9--------7--9--------9--------
A|--------------------------------------------------------------
E|--------------------------------------------------------------

Stave 7:

E|----------------------10--7-------------------------------------
B|---------------12------------8-----8---------7-----7--5h7p5-----
G|------------9-------------------9-----9---------9------------7--
D|--9--10----------------------------------10---------------------
A|----------------------------------------------------------------
E|----------------------------------------------------------------

Stave 8:

E|---------------------------------------7--------
B|-----------10-----7-----------------------7-----
G|--------7------------7--------------9--------9--
D|--7--9------------------7--------9--------------
A|------------------------------------------------
E|------------------------------------------------

Stave 9:

E|--7--------------------------------
B|-----8-----7-----------------------
G|--------9-----7--------------7-----
D|-----------------7-----7--9-----9--
A|-----------------------------------
E|-----------------------------------

Stave 10:

E|--5--------2--5--------5--------2--5-----4--------0--4-----0--------0--4--
B|--------3--------------------3-----------------2-----------------2--------
G|-----4--------------4-----4-----------------3-----------------3-----------
D|--------------------------------------------------------------------------
A|--------------------------------------------------------------------------
E|--------------------------------------------------------------------------

Stave 11:

E|--0--3-----------0--3-----------0-----0--3-----2-----------2--------2--------------2--
B|--------------1--------------------1-----------------0--1--------1--------0--1--3-----
G|-----------2--------------2-----------------------2--------------------2--------------
D|--------------------------------------------------------------------------------------
A|--------------------------------------------------------------------------------------
E|--------------------------------------------------------------------------------------

http://www.guitartabcreator.com
Guitar Tab Creator is intended to store guitar tab created through the tool. It currently does not support in-line text editing. Any text you place in here will be lost. If you need to comment on your tab, please use the "Tab Notes" section located below.