Mistika - Rain - Initial D 5th Stage

01234567891011121314151617181920212223
E
B
G
D
A
E
B
0 1 2 3 4 5 6 7 8 9 10 11 12 13 14 15 16 17 18 19 20 21 22 23
(/) Slide Up  (\) Slide Down  (h) Hammer On  (p) Pull Off  (b) Bend (r) Release (v) Vibrato

Stave 1:

Eb|--------------------------------------------------------------------------
Bb|---------------------------------------------------------------13/15--13--
Gb|--13b15--13b15--13b15------12--14--15--14--12-----------------------------
Db|-----------------------12----------------------12--13--12--13-------------
Ab|--------------------------------------------------------------------------
Eb|--------------------------------------------------------------------------

Stave 2:

Eb|--------------------------------------------------------------------------
Bb|-----------------------------------10--------------------------11/13--11--
Gb|--12b14--12b14--12b14------10--12------12--10-----------------------------
Db|-----------------------12----------------------10--12--10--12-------------
Ab|--------------------------------------------------------------------------
Eb|--------------------------------------------------------------------------

							http://www.guitartabcreator.com
Chords

Instruments
{"strings":[[[".",".",".",".",".",".",".",".",".",".",".",".",".",".",".",".",".",".",".",".",".",".","."],[".",".",".",".",".",".",".",".",".",".",".",".",".",".",".",".",".",".",".",13,"/",15,13],[13,"b",15,13,"b",15,13,"b",15,".",12,14,15,14,12,".",".",".",".",".",".",".","."],[".",".",".",".",".",".",".",".",".",12,".",".",".",".",".",12,13,12,13,".",".",".","."],[".",".",".",".",".",".",".",".",".",".",".",".",".",".",".",".",".",".",".",".",".",".","."],[".",".",".",".",".",".",".",".",".",".",".",".",".",".",".",".",".",".",".",".",".",".","."]],[[".",".",".",".",".",".",".",".",".",".",".",".",".",".",".",".",".",".",".",".",".",".","."],[".",".",".",".",".",".",".",".",".",".",".",".",10,".",".",".",".",".",".",11,"/",13,11],[12,"b",14,12,"b",14,12,"b",14,".",10,12,".",12,10,".",".",".",".",".",".",".","."],[".",".",".",".",".",".",".",".",".",12,".",".",".",".",".",10,12,10,12,".",".",".","."],[".",".",".",".",".",".",".",".",".",".",".",".",".",".",".",".",".",".",".",".",".",".","."],[".",".",".",".",".",".",".",".",".",".",".",".",".",".",".",".",".",".",".",".",".",".","."]]],"numberofstrings":6,"notes":["DsEb","AsBb","FsGb","CsDb","GsAb","DsEb"],"capo":0,"stringnotes":["Eb3","Bb2","Gb2","Db2","Ab1","Eb1"],"comments":["Stave 1:","Stave 2:"],"timing":[["W",null,"W","W",null,"W","W",null,"W","W","W","W","W","W","W","W","W","W","W","W","W","W","W","W"],["W",null,"W","W",null,"W","W",null,"W","W","W","W","W","W","W","W","W","W","W","W","W","W","W","W"]],"timingvisible":false,"tabcounter":23,"stave":1,"totalstaves":2,"instrument":"6guitar","selectedtuning":"Half Step Down","version":"13"}

Member for

4 months 2 weeks
Submitted by tabs123ee on Sun, 2020-10-04 06:45