Sound will begin in 5 seconds

Bryan Adams - Here I Am

Chords
01234567891011121314151617181920212223
E
B
G
D
A
E
B
0 1 2 3 4 5 6 7 8 9 10 11 12 13 14 15 16 17 18 19 20 21 22 23
Song Science #1: How Pros Use 6 Chords to Write Hit Songs
(/) Slide Up  (\) Slide Down  (h) Hammer On  (p) Pull Off  (b) Bend (r) Release (v) Vibrato

Capo Fret 1

Stave 1:

E|-----------6--------3-----3--1--------------|--
B|--------4--------4--------------4h6p4--3p1--|--
G|-----5--------5--------3--------------------|--
D|--------------------3-----------------------|--
A|--3--------------------------1--------------|--
E|-----------4--------------------------------|--

Stave 2:

E|-----------3--------6--6--|--
B|--------1--------4-----4--|--
G|-----1--------5--------5--|--
D|--------------------------|--
A|--------------------------|--
E|--1--------------------4--|--

Stave 3:

E|--------------------------|--------------------|--------------------|-----------------
B|--------------------------|--------------------|--------------------|-----------------
G|--7--8--8--8--8--8--8--8--|--8--7--7--7--7--7--|--5--5--5--5--5--5--|--8--8--8--8--8--
D|--8--8--8--8--8--8--8--8--|--8--8--8--8--8--8--|--6--6--6--6--6--6--|--8--8--8--8--8--
A|--6--6--6--6--6--6--6--6--|--6--6--8--8--8--8--|--6--6--6--6--6--6--|--6--6--6--6--6--
E|--------------------------|--6--6--6--6--6--6--|--4--4--4--4--4--4--|-----------------

Stave 4:

E|--------------------|-----------------|-----------------|-----------------|--
B|--------------------|-----------------|-----------------|-----------------|--
G|--7--8--8--8--8--8--|--8--8--8--8--8--|--7--7--7--7--7--|--7--7--7--7--7--|--
D|--8--8--6--6--6--6--|--5--5--5--5--5--|--5--5--5--5--5--|--8--8--8--8--8--|--
A|--6--6--6--6--6--6--|--6--6--6--6--6--|--5--5--5--5--5--|--8--8--8--8--8--|--
E|--------------------|-----------------|-----------------|--6--6--6--6--6--|--

Stave 5:

E|--------------------------|--|--
B|--------------------------|--|--
G|--------------------------|--|--
D|--10--10--6--6--10--8--8--|--|--
A|--10--10--6--6--10--8--8--|--|--
E|--8---8---4--4--8---6--6--|--|--

http://www.guitartabcreator.com
Guitar Tab Creator is intended to store guitar tab created through the tool. It currently does not support in-line text editing. Any text you place in here will be lost. If you need to comment on your tab, please use the "Tab Notes" section located below.