TAKE ON ME AHA

Chords

01234567891011121314151617181920212223
E
B
G
D
A
E
B
0 1 2 3 4 5 6 7 8 9 10 11 12 13 14 15 16 17 18 19 20 21 22 23
(/) Slide Up  (\) Slide Down  (h) Hammer On  (p) Pull Off  (b) Bend (r) Release (v) Vibrato

Stave 1:

E|--2-----------------2--2-----------0-----0--0--4--4--5--7-----5--5--5--0-----2-----2--2--0--0--2--0--
B|--3--2--------------------3--0--0-----------------------------------------3--------------------------
G|--4-----2--------------------------------------------------------------------------------------------
D|-----------------------------------------------------------------------------------------------------
A|-----------------------------------------------------------------------------------------------------
E|-----------------------------------------------------------------------------------------------------

Stave 2:

E|--2--2-----------0-----0--0--4--5--7-----5--5--5--0-----2-----2--2--0--0--2--0--
B|--------3--0--0--------------------------------------3--------------------------
G|--------------------------------------------------------------------------------
D|--------------------------------------------------------------------------------
A|--------------------------------------------------------------------------------
E|--------------------------------------------------------------------------------

Stave 3:

E|--2--2-----------0--0--0--4--4--5--7-----5--5--5--0-----2-----2--2--0--0--2--0--
B|--------3--0--0--------------------------------------3--------------------------
G|--------------------------------------------------------------------------------
D|--------------------------------------------------------------------------------
A|--------------------------------------------------------------------------------
E|--------------------------------------------------------------------------------

Stave 4:

E|--------------------------------------2--0--2--0--
B|--3--3--2--0--------2--2--2-----------------------
G|-----------------------------2--------------------
D|--------------------------------------------------
A|--------------------------------------------------
E|--------------------------------------------------

Stave 5:

E|-----------------------------------------
B|--3--3--2--0--------2--2--2--2--0--------
G|-----------------------------------2-----
D|-----------------------------------------
A|-----------------------------------------
E|-----------------------------------------

							http://www.guitartabcreator.com
genre
Instruments
{"strings":[[[2,".",".","_","_","_",2,2,".",".",".",0,"_",0,0,4,4,5,7,"_",5,5,5,0,".",2,"_",2,2,0,0,2,null,0],[3,2,".","_","_","_",".",".",3,0,0,".","_",".",".",".",".",".",".","_",".",".",".",".",3,".","_",".",".",".",".",".",null,"."],[4,".",2,"_","_","_",".",".",".",".",".",".","_",".",".",".",".",".",".","_",".",".",".",".",".",".","_",".",".",".",".",".",null,"."],[".",".",".","_","_","_",".",".",".",".",".",".","_",".",".",".",".",".",".","_",".",".",".",".",".",".","_",".",".",".",".",".",null,"."],[".",".",".","_","_","_",".",".",".",".",".",".","_",".",".",".",".",".",".","_",".",".",".",".",".",".","_",".",".",".",".",".",null,"."],[".",".",".","_","_","_",".",".",".",".",".",".","_",".",".",".",".",".",".","_",".",".",".",".",".",".","_",".",".",".",".",".",null,"."]],[[2,2,".",".",".",0,"_",0,0,4,5,7,"_",5,5,5,0,".",2,"_",2,2,0,0,2,0],[".",".",3,0,0,".","_",".",".",".",".",".","_",".",".",".",".",3,".","_",".",".",".",".",".","."],[".",".",".",".",".",".","_",".",".",".",".",".","_",".",".",".",".",".",".","_",".",".",".",".",".","."],[".",".",".",".",".",".","_",".",".",".",".",".","_",".",".",".",".",".",".","_",".",".",".",".",".","."],[".",".",".",".",".",".","_",".",".",".",".",".","_",".",".",".",".",".",".","_",".",".",".",".",".","."],[".",".",".",".",".",".","_",".",".",".",".",".","_",".",".",".",".",".",".","_",".",".",".",".",".","."]],[[2,2,".",".",".",0,0,0,4,4,5,7,"_",5,5,5,0,".",2,"_",2,2,0,0,2,0],[".",".",3,0,0,".",".",".",".",".",".",".","_",".",".",".",".",3,".","_",".",".",".",".",".","."],[".",".",".",".",".",".",".",".",".",".",".",".","_",".",".",".",".",".",".","_",".",".",".",".",".","."],[".",".",".",".",".",".",".",".",".",".",".",".","_",".",".",".",".",".",".","_",".",".",".",".",".","."],[".",".",".",".",".",".",".",".",".",".",".",".","_",".",".",".",".",".",".","_",".",".",".",".",".","."],[".",".",".",".",".",".",".",".",".",".",".",".","_",".",".",".",".",".",".","_",".",".",".",".",".","."]],[[".",".",".",".","_","_",".",".",".",".","_","_",2,0,2,0],[3,3,2,0,"_","_",2,2,2,".","_","_",".",".",".","."],[".",".",".",".","_","_",".",".",".",2,"_","_",".",".",".","."],[".",".",".",".","_","_",".",".",".",".","_","_",".",".",".","."],[".",".",".",".","_","_",".",".",".",".","_","_",".",".",".","."],[".",".",".",".","_","_",".",".",".",".","_","_",".",".",".","."]],[[".",".",".",".","_","_",".",".",".",".",".",".","_"],[3,3,2,0,"_","_",2,2,2,2,0,".","_"],[".",".",".",".","_","_",".",".",".",".",".",2,"_"],[".",".",".",".","_","_",".",".",".",".",".",".","_"],[".",".",".",".","_","_",".",".",".",".",".",".","_"],[".",".",".",".","_","_",".",".",".",".",".",".","_"]]],"numberofstrings":6,"notes":["E","B","G","D","A","E","B"],"capo":"0","stringnotes":["E4","B3","G3","D3","A2","E2"],"comments":["Stave 1:","Stave 2:","Stave 3:","Stave 4:","Stave 5:"],"timing":[[null,null,null,null,null,null,null,null,null,null,null,null,null,null,null,null,null,null,null,null,null,null,null,null,null,null,null,null,null,null,null,null,null],[null,null,null,null,null,null,null,null,null,null,null,null,null,null,null,null,null,null,null,null,null,null,null,null,null,null],[null,null,null,null,null,null,null,null,null,null,null,null,null,null,null,null,null,null,null,null,null,null,null,null,null,null],[null,null,null,null,null,null,null,null,null,null,null,null,null,null,null,null],[null,null,null,null,null,null,null,null,null,null,null,null,null,null,null,null,null]],"timingvisible":false,"tabcounter":13,"stave":4,"totalstaves":5,"instrument":"6guitar","selectedtuning":"6_standard","version":"13"}

Member for

3 months
Submitted by t0m4s576 on Thu, 2020-08-27 09:36