FEEL GOOD INC- GORILLAZ

Chords

01234567891011121314151617181920212223
E
B
G
D
A
E
B
0 1 2 3 4 5 6 7 8 9 10 11 12 13 14 15 16 17 18 19 20 21 22 23
(/) Slide Up  (\) Slide Down  (h) Hammer On  (p) Pull Off  (b) Bend (r) Release (v) Vibrato

Stave 1:

E|------------------------------
B|------------------------------
G|------------------------------
D|-----------------------------/
A|---------3-2-7-0----0-3-2-----
E|-0-0-2-3------------------3-0-

Stave 2:

E|------------------------------------------
B|------------------------------------------
G|-4-4-3-3-2----2-2-1-1-----0-0---0-0---0---
D|----------------------2-2-----2-----2---2-
A|------------------------------------------
E|------------------------------------------

Stave 3:

E|------------------------------------
B|------------------------------------
G|-4/5-4-4-3-3-3-2-2---2-3-2-2-2-0---
D|----------------------------------2-
A|------------------------------------
E|------------------------------------

Stave 4:

E|--------------------------------------------
B|--------------------------------------------
G|-4-4-3-3-2----2-2-1-1-1-----0-0---0-0---0---
D|------------------------2-2-----2-----2---2-
A|--------------------------------------------
E|--------------------------------------------

Stave 5:

E|-----------------------------------------
B|-4-5-4-4-3----3-3-2-2-2----2-3-2-2-2-0---
G|---------------------------------------2-
D|-----------------------------------------
A|-----------------------------------------
E|-----------------------------------------

Stave 6:

E|-------------
B|-------------
G|-------------
D|-2-0---------
A|-----2-0-----
E|---------3-0-

Stave 7:

E|----------7-10-7-------------------
B|---7-8-10--------10-8---8-10-7-----
G|-9--------------------9--------9-7-
D|-----------------------------------
A|-----------------------------------
E|-----------------------------------

Stave 8:

E|----------7-10-7-----------------
B|---7-8-10--------10-8---8-10-7---
G|-9--------------------9--------7-
D|---------------------------------
A|---------------------------------
E|---------------------------------

Stave 9:

E|----------7-10-7-------------
B|---7-8-10--------10-8---8-10-
G|-9--------------------9------
D|-----------------------------
A|-----------------------------
E|-----------------------------

							http://www.guitartabcreator.com
genre
Instruments
{"strings":[[[".",".",".",".",".",".",".",".","_",".",".",".",".",".","."],[".",".",".",".",".",".",".",".","_",".",".",".",".",".","."],[".",".",".",".",".",".",".",".","_",".",".",".",".",".","."],[".",".",".",".",".",".",".",".","_",".",".",".",".",".","/"],[".",".",".",".",3,2,7,0,"_",0,3,2,".",".","."],[0,0,2,3,".",".",".",".","_",".",".",".",3,0,"."]],[[".",".",".",".",".","_",".",".",".",".",".",".",".",".",".",".",".",".",".","."],[".",".",".",".",".","_",".",".",".",".",".",".",".",".",".",".",".",".",".","."],[4,4,3,3,2,"_",2,2,1,1,".",".",0,0,".",0,0,".",0,"."],[".",".",".",".",".","_",".",".",".",".",2,2,".",".",2,".",".",2,".",2],[".",".",".",".",".","_",".",".",".",".",".",".",".",".",".",".",".",".",".","."],[".",".",".",".",".","_",".",".",".",".",".",".",".",".",".",".",".",".",".","."]],[[".",".",".",".",".",".","_",".",".",".",".",".",".",".",".",".",".","."],[".",".",".",".",".",".","_",".",".",".",".",".",".",".",".",".",".","."],[4,"/",5,4,4,3,3,3,2,2,".",2,3,2,2,2,0,"."],[".",".",".",".",".",".","_",".",".",".",".",".",".",".",".",".",".",2],[".",".",".",".",".",".","_",".",".",".",".",".",".",".",".",".",".","."],[".",".",".",".",".",".","_",".",".",".",".",".",".",".",".",".",".","."]],[[".",".",".",".",".","_",".",".",".",".",".",".",".",".",".",".",".",".",".",".","."],[".",".",".",".",".","_",".",".",".",".",".",".",".",".",".",".",".",".",".",".","."],[4,4,3,3,2,"_",2,2,1,1,1,".",".",0,0,".",0,0,".",0,"."],[".",".",".",".",".","_",".",".",".",".",".",2,2,".",".",2,".",".",2,".",2],[".",".",".",".",".","_",".",".",".",".",".",".",".",".",".",".",".",".",".",".","."],[".",".",".",".",".","_",".",".",".",".",".",".",".",".",".",".",".",".",".",".","."]],[[".",".",".",".",".","_",".",".",".",".",".","_",".",".",".",".",".",".","."],[4,5,4,4,3,"_",3,3,2,2,2,"_",2,3,2,2,2,0,"."],[".",".",".",".",".","_",".",".",".",".",".","_",".",".",".",".",".",".",2],[".",".",".",".",".","_",".",".",".",".",".","_",".",".",".",".",".",".","."],[".",".",".",".",".","_",".",".",".",".",".","_",".",".",".",".",".",".","."],[".",".",".",".",".","_",".",".",".",".",".","_",".",".",".",".",".",".","."]],[[".",".",".",".",".","."],[".",".",".",".",".","."],[".",".",".",".",".","."],[2,0,".",".",".","."],[".",".",2,0,".","."],[".",".",".",".",3,0]],[[".",".",".",".",7,10,7,".",".",".",".",".",".",".","."],[".",7,8,10,".",".",".",10,8,".",8,10,7,".","."],[9,".",".",".",".",".",".",".",".",9,".",".",".",9,7],[".",".",".",".",".",".",".",".",".",".",".",".",".",".","."],[".",".",".",".",".",".",".",".",".",".",".",".",".",".","."],[".",".",".",".",".",".",".",".",".",".",".",".",".",".","."]],[[".",".",".",".",7,10,7,".",".",".",".",".",".","."],[".",7,8,10,".",".",".",10,8,".",8,10,7,"."],[9,".",".",".",".",".",".",".",".",9,".",".",".",7],[".",".",".",".",".",".",".",".",".",".",".",".",".","."],[".",".",".",".",".",".",".",".",".",".",".",".",".","."],[".",".",".",".",".",".",".",".",".",".",".",".",".","."]],[[".",".",".",".",7,10,7,".",".",".",".","."],[".",7,8,10,".",".",".",10,8,".",8,10],[9,".",".",".",".",".",".",".",".",9,".","."],[".",".",".",".",".",".",".",".",".",".",".","."],[".",".",".",".",".",".",".",".",".",".",".","."],[".",".",".",".",".",".",".",".",".",".",".","."]]],"numberofstrings":6,"notes":["E","B","G","D","A","E","B"],"capo":0,"stringnotes":["E4","B3","G3","D3","A2","E2"],"comments":["Stave 1:","Stave 2:","Stave 3:","Stave 4:","Stave 5:","Stave 6:","Stave 7:","Stave 8:","Stave 9:"],"timing":[["W","W","W","W","W","W","W","W",null,"W","W","W","W","W","W","W"],["W","W","W","W","W",null,"W","W","W","W","W","W","W","W","W","W","W","W","W","W"],["W",null,"W","W","W","W",null,"W","W","W","W","W","W","W","W","W","W","W"],["W","W","W","W","W",null,"W","W","W","W","W","W","W","W","W","W","W","W","W","W","W"],["W","W","W","W","W",null,"W","W","W","W","W",null,"W","W","W","W","W","W","W"],["W","W","W","W","W","W"],["W","W","W","W","W","W","W","W","W","W","W","W","W","W","W"],["W","W","W","W","W","W","W","W","W","W","W","W","W","W"],["W","W","W","W","W","W","W","W","W","W","W","W"]],"timingvisible":false,"tabcounter":12,"stave":8,"totalstaves":9,"instrument":"6guitar","selectedtuning":"6_standard","version":"13"}

Member for

3 months
Submitted by t0m4s576 on Thu, 2020-08-27 12:17