Geffen Riff 10/29

Chords

01234567891011121314151617181920212223
E
B
G
D
A
E
B
0 1 2 3 4 5 6 7 8 9 10 11 12 13 14 15 16 17 18 19 20 21 22 23
(/) Slide Up  (\) Slide Down  (h) Hammer On  (p) Pull Off  (b) Bend (r) Release (v) Vibrato

Stave 1:

G|--------------------------------------------------------------------------------------------------
D|-----------------------5--5--5--5--5--5--5--5-----------------------------------------------------
A|--6--------6-----------------------------------------6--------6-----------------------------------
E|--------------------------------------------------------------------------3--3--3--3--3--3--3--3--

Stave 2:

G|--5--5--5--5-----3--3--3--3-----5--5--5--5-----3--3--3--3--------
D|-----------------------------------------------------------------
A|-----------------------------------------------------------------
E|-----------------------------------------------------------------

							http://www.guitartabcreator.com
Instruments
{"strings":[[[".","_","_",".","_","_","_",".",".",".",".",".",".",".",".","_","_",".","_","_",".","_","_","_",".",".",".",".",".",".",".","."],[".","_","_",".","_","_","_",5,5,5,5,5,5,5,5,"_","_",".","_","_",".","_","_","_",".",".",".",".",".",".",".","."],[6,"_","_",6,"_","_","_",".",".",".",".",".",".",".",".","_","_",6,"_","_",6,"_","_","_",".",".",".",".",".",".",".","."],[".","_","_",".","_","_","_",".",".",".",".",".",".",".",".","_","_",".","_","_",".","_","_","_",3,3,3,3,3,3,3,3]],[[5,5,5,5,"_",3,3,3,3,"_",5,5,5,5,"_",3,3,3,3,"_","_"],[".",".",".",".","_",".",".",".",".","_",".",".",".",".","_",".",".",".",".","_","_"],[".",".",".",".","_",".",".",".",".","_",".",".",".",".","_",".",".",".",".","_","_"],[".",".",".",".","_",".",".",".",".","_",".",".",".",".","_",".",".",".",".","_","_"]]],"numberofstrings":4,"notes":["G","D","A","E"],"capo":0,"stringnotes":["G2","D2","A1","E1"],"comments":["Stave 1:","Stave 2:","Stave 3:"],"timing":[["W",null,null,"W",null,null,null,"W","W","W","W","W","W","W","W","W","W","W","W","W","W","W","W","W","W","W","W","W","W","W","W","W"],["W","W","W","W","W","W","W","W","W",null,"W","W","W","W",null,"W","W","W","W"],[]],"timingvisible":false,"tabcounter":21,"stave":1,"totalstaves":2,"instrument":"4bass","selectedtuning":"4bass","version":"13"}

Member for

5 months
Submitted by T Mac on Tue, 2020-10-13 12:05