Geffen Lesson 9/24

Chords

01234567891011121314151617181920212223
E
B
G
D
A
E
B
0 1 2 3 4 5 6 7 8 9 10 11 12 13 14 15 16 17 18 19 20 21 22 23
(/) Slide Up  (\) Slide Down  (h) Hammer On  (p) Pull Off  (b) Bend (r) Release (v) Vibrato

Stave 1:

G|----------------------------------------------------------------
D|-------------------------------------------------7-----7--------
A|--0--0--0-----7-----7-----0--0-----0--0-----7/9-----9-----9-----
E|-----------------9----------------------------------------------

Stave 2:

G|-----------------------------------------------------------------------------------------------------------
D|--------------------------------------------------------0--0--0-----7-----7--------------------------------
A|--0--0--0-----7-----7-----0--0-----0--0-----7-----7--------------------9--------0--0-----0--0-----7-----7--
E|-----------------9-----------------------------9-----------------------------------------------------9-----

Stave 3:

G|-----------------------------------------------
D|--------------------------0--0--0-----7-----7--
A|--0--0--0-----7-----7--------------------9-----
E|-----------------9-----------------------------

							http://www.guitartabcreator.com
Instruments
{"strings":[[[".",".",".","_",".",".",".","_",".",".","_",".",".",null,null,null,null,null,null,null,null,null,null,null,null,null,null,"_",".",".",".",".",".",".",".","_"],[".",".",".","_",".",".",".","_",".",".","_",".",".",null,null,null,null,null,null,null,null,null,null,null,null,null,null,"_",".",".",".",7,".",7,".","_"],[0,0,0,"_",7,".",7,"_",0,0,"_",0,0,null,null,null,null,null,null,null,null,null,null,null,null,null,null,"_",7,"/",9,".",9,".",9,"_"],[".",".",".","_",".",9,".","_",".",".","_",".",".",null,null,null,null,null,null,null,null,null,null,null,null,null,null,"_",".",".",".",".",".",".",".","_"]],[[".",".",".","_",".",".",".","_",".",".","_",".",".","_",".",".",".","_",".",".",".","_",".",".",".","_",".",".","_",".",".","_",".",".","."],[".",".",".","_",".",".",".","_",".",".","_",".",".","_",".",".",".","_",0,0,0,"_",7,".",7,"_",".",".","_",".",".","_",".",".","."],[0,0,0,"_",7,".",7,"_",0,0,"_",0,0,"_",7,".",7,"_",".",".",".","_",".",9,".","_",0,0,"_",0,0,"_",7,".",7],[".",".",".","_",".",9,".","_",".",".","_",".",".","_",".",9,".","_",".",".",".","_",".",".",".","_",".",".","_",".",".","_",".",9,"."]],[[".",".",".","_",".",".",".","_",".",".",".","_",".",".","."],[".",".",".","_",".",".",".","_",0,0,0,"_",7,".",7],[0,0,0,"_",7,".",7,"_",".",".",".","_",".",9,"."],[".",".",".","_",".",9,".","_",".",".",".","_",".",".","."]]],"numberofstrings":4,"notes":["G","D","A","E"],"capo":0,"stringnotes":["G2","D2","A1","E1"],"comments":["Stave 1:","Stave 2:","Stave 3:"],"timing":[["W","W","W",null,"W","W","W",null,"W","W",null,"W","W",null,"W",null,"W","W","W","W","W",null,null,null,null,null,null,null,"W",null,"W","W","W","W","W"],["W","W","W",null,"W","W","W",null,"W","W",null,"W","W",null,"W","W","W",null,"W","W","W",null,"W","W","W",null,"W","W",null,"W","W",null,"W","W","W"],["W","W","W",null,"W","W","W",null,"W","W","W","W","W","W","W"]],"timingvisible":false,"tabcounter":15,"stave":2,"totalstaves":3,"instrument":"4bass","selectedtuning":"4bass","version":"13"}

Member for

4 months
Submitted by T Mac on Thu, 2020-09-17 21:00