Geffen Lesson 10/17/21

01234567891011121314151617181920212223
E
B
G
D
A
E
B
0 1 2 3 4 5 6 7 8 9 10 11 12 13 14 15 16 17 18 19 20 21 22 23
(/) Slide Up  (\) Slide Down  (h) Hammer On  (p) Pull Off  (b) Bend (r) Release (v) Vibrato

Stave 1:

G|--------------------------------------------
D|-----------------2--0--------4--------0--2--
A|--------------2-----------2--------2--------
E|--0-----3--4--------------------------------

Stave 2:

G|-----------------------2--------------------------2--
D|--------------0--0--4--------------------0--0--4-----
A|--0--0--3--4-----------------0--0--3--4--------------
E|-----------------------------------------------------

Stave 3:

G|-----------------------2-----------------------------------------------------
D|--------------0--0--4--------------------0--0--2--2--3--3--5--5--7--7--7--7--
A|--0--0--3--4-----------------0--0--3--4--------------------------------------
E|-----------------------------------------------------------------------------

Stave 4:

G|--------------------------------------------------
D|--------------------------5--5--3--3--2--2--0--0--
A|--5--5--3--3--2--2--0--0--------------------------
E|--------------------------------------------------

Stave 5:

G|--------------------------------------------
D|--------------------------------------2--2--
A|--3--3--2--2--0--0--------0--0--2--2--------
E|--------------------3--3--------------------

							http://www.guitartabcreator.com
Chords

Instruments
{"strings":[[[".","_",".",".",".",".",".","_",".",".","_",".",".","."],[".","_",".",".",".",2,0,"_",".",4,"_",".",0,2],[".","_",".",".",2,".",".","_",2,".","_",2,".","."],[0,"_",3,4,".",".",".","_",".",".","_",".",".","."]],[[".",".",".",".",".",".",".",2,"_",".",".",".",".",".",".",".",2],[".",".",".",".",0,0,4,".","_",".",".",".",".",0,0,4,"."],[0,0,3,4,".",".",".",".","_",0,0,3,4,".",".",".","."],[".",".",".",".",".",".",".",".","_",".",".",".",".",".",".",".","."]],[[".",".",".",".",".",".",".",2,"_",".",".",".",".",".",".",".",".",".",".",".",".",".",".",".","."],[".",".",".",".",0,0,4,".","_",".",".",".",".",0,0,2,2,3,3,5,5,7,7,7,7],[0,0,3,4,".",".",".",".","_",0,0,3,4,".",".",".",".",".",".",".",".",".",".",".","."],[".",".",".",".",".",".",".",".","_",".",".",".",".",".",".",".",".",".",".",".",".",".",".",".","."]],[[".",".",".",".",".",".",".",".",".",".",".",".",".",".",".","."],[".",".",".",".",".",".",".",".",5,5,3,3,2,2,0,0],[5,5,3,3,2,2,0,0,".",".",".",".",".",".",".","."],[".",".",".",".",".",".",".",".",".",".",".",".",".",".",".","."]],[[".",".",".",".",".",".",".",".",".",".",".",".",".","."],[".",".",".",".",".",".",".",".",".",".",".",".",2,2],[3,3,2,2,0,0,".",".",0,0,2,2,".","."],[".",".",".",".",".",".",3,3,".",".",".",".",".","."]]],"numberofstrings":4,"notes":["G","D","A","E"],"capo":0,"stringnotes":["G2","D2","A1","E1"],"comments":["Stave 1:","Stave 2:","Stave 3:","Stave 4:","Stave 5:"],"timing":[["W","W","W","W","W","W","W","W","W","W","W","W","W","W"],["W","W","W","W","W","W","W","W","W","W","W","W","W","W","W","W","W"],["W","W","W","W","W","W","W","W","W","W","W","W","W","W","W","W","W","W","W","W","W","W","W","W","W"],["W","W","W","W","W","W","W","W","W","W","W","W","W","W","W","W"],["W","W","W","W","W","W","W","W","W","W","W","W","W","W"]],"timingvisible":false,"tabcounter":14,"stave":4,"totalstaves":5,"instrument":"4bass","selectedtuning":"4bass","version":"13"}

Member for

1 year 4 months
Submitted by T Mac on Sun, 2021-10-17 10:52