Devlin Bass Lesson 9/22

Chords

01234567891011121314151617181920212223
E
B
G
D
A
E
B
0 1 2 3 4 5 6 7 8 9 10 11 12 13 14 15 16 17 18 19 20 21 22 23
(/) Slide Up  (\) Slide Down  (h) Hammer On  (p) Pull Off  (b) Bend (r) Release (v) Vibrato

Stave 1:

G|--------------------------------------------------------------------
D|-----------------------4-----6--4--7--6-----4-----------------------
A|-----4-----6--4--7--6-----7--------------7-----6--7--4--6-----4-----
E|--5-----7--------------------------------------------------7-----5--

Stave 2:

G|---------------------9/12p0--7--
D|---------9/12-------------------
A|--0h3h5--------10\7-------------
E|--------------------------------

Stave 3:

G|-------------------11h14p11---------
D|----------14p9----------------------
A|------12---------------------14-----
E|--10--------------------------------

							http://www.guitartabcreator.com
Instruments
{"strings":[[[".",".",".",".",".",".",".",".",".",".",".",".",".",".",".",".",".",".",".",".",".","."],[".",".",".",".",".",".",".",4,".",6,4,7,6,".",4,".",".",".",".",".",".","."],[".",4,".",6,4,7,6,".",7,".",".",".",".",7,".",6,7,4,6,".",4,"."],[5,".",7,".",".",".",".",".",".",".",".",".",".",".",".",".",".",".",".",7,".",5]],[[".",".",".",".",".",".",".",".",".",".",".",9,"/",12,"p",0,7],[".",".",".",".",".",9,"/",12,".",".",".",".",".",".",".",".","."],[0,"h",3,"h",5,".",".",".",10,"\\",7,".",".",".",".",".","."],[".",".",".",".",".",".",".",".",".",".",".",".",".",".",".",".","."]],[[".",".",".",".",".","_",11,"h",14,"p",11,".","_"],[".",".",14,"p",9,"_",".",".",".",".",".",".","_"],[".",12,".",".",".","_",".",".",".",".",".",14,"_"],[10,".",".",".",".","_",".",".",".",".",".",".","_"]]],"numberofstrings":4,"notes":["G","D","A","E"],"capo":0,"stringnotes":["G2","D2","A1","E1"],"comments":["Stave 1:","Stave 2:","Stave 3:"],"timing":[["W","W","W","W","W","W","W","W","W","W","W","W","W","W","W","W","W","W","W","W","W","W"],["W",null,"W",null,"W","W",null,"W","W",null,"W","W",null,"W",null,"W","W"],["W","W","W",null,"W",null,"W",null,"W",null,"W","W"]],"timingvisible":false,"tabcounter":13,"stave":2,"totalstaves":3,"instrument":"4bass","selectedtuning":"4bass","version":"13"}

Member for

4 months
Submitted by T Mac on Wed, 2020-09-23 14:52