Devlin Bass Lesson 9/16

Chords

01234567891011121314151617181920212223
E
B
G
D
A
E
B
0 1 2 3 4 5 6 7 8 9 10 11 12 13 14 15 16 17 18 19 20 21 22 23
(/) Slide Up  (\) Slide Down  (h) Hammer On  (p) Pull Off  (b) Bend (r) Release (v) Vibrato

Stave 1:

G|--------------12----------------------------12-------------
D|----------14---------14-----------------14---------14------
A|------14-----------------14---------14-----------------14--
E|--12----------------------------12-------------------------

Stave 2:

G|--------------14----------------------------14-------------
D|----------13---------13-----------------13---------13------
A|------15-----------------14---------15-----------------14--
E|--12----------------------------12-------------------------

Stave 3:

G|-------------------------------------------------------------------
D|----------13--14-----14--13-----------------13--14-----14--13------
A|------14---------------------14---------14---------------------14--
E|--12--------------------------------12-----------------------------

Stave 4:

G|--------------14----------------------------12-------------
D|----------13---------13-----------------14---------14------
A|------14-----------------14---------14-----------------14--
E|--12----------------------------12-------------------------

Stave 5:

G|-----7-----5--5--6--7-----------5--5--6--7-----------------------5--------5--5--6--7-----------5--5--6--7--------
D|-----------------------7--------------------7--------5--5--6--7-----7-----------------7--------------------7-----
A|--5-----------------------5--------------------5-----------------------------------------5--------------------5--
E|-----------------------------------------------------------------------------------------------------------------

Stave 6:

G|-------5--5----------------5--5--------------
D|--6/7--------5--------6/7--------5-----------
A|----------------8-------------------8--------
E|---------------------------------------------

							http://www.guitartabcreator.com
Instruments
{"strings":[[[".",".",".",12,"_",".",".","_",".",".",".",12,"_",".","."],[".",".",14,".","_",14,".","_",".",".",14,".","_",14,"."],[".",14,".",".","_",".",14,"_",".",14,".",".","_",".",14],[12,".",".",".","_",".",".","_",12,".",".",".","_",".","."]],[[".",".",".",14,"_",".",".","_",".",".",".",14,"_",".","."],[".",".",13,".","_",13,".","_",".",".",13,".","_",13,"."],[".",15,".",".","_",".",14,"_",".",15,".",".","_",".",14],[12,".",".",".","_",".",".","_",12,".",".",".","_",".","."]],[[".",".",".",".","_",".",".",".","_",".",".",".",".","_",".",".","."],[".",".",13,14,"_",14,13,".","_",".",".",13,14,"_",14,13,"."],[".",14,".",".","_",".",".",14,"_",".",14,".",".","_",".",".",14],[12,".",".",".","_",".",".",".","_",12,".",".",".","_",".",".","."]],[[".",".",".",14,"_",".",".","_",".",".",".",12,"_",".","."],[".",".",13,".","_",13,".","_",".",".",14,".","_",14,"."],[".",14,".",".","_",".",14,"_",".",14,".",".","_",".",14],[12,".",".",".","_",".",".","_",12,".",".",".","_",".","."]],[[".",7,"_",5,5,6,7,".",".","_",5,5,6,7,".",".","_",".",".",".",".",5,".","_",5,5,6,7,".",".","_",5,5,6,7,".","."],[".",".","_",".",".",".",".",7,".","_",".",".",".",".",7,".","_",5,5,6,7,".",7,"_",".",".",".",".",7,".","_",".",".",".",".",7,"."],[5,".","_",".",".",".",".",".",5,"_",".",".",".",".",".",5,"_",".",".",".",".",".",".","_",".",".",".",".",".",5,"_",".",".",".",".",".",5],[".",".","_",".",".",".",".",".",".","_",".",".",".",".",".",".","_",".",".",".",".",".",".","_",".",".",".",".",".",".","_",".",".",".",".",".","."]],[[".",".",".",5,5,".",".","_",".",".",".",5,5,".",".","_","_"],[6,"/",7,".",".",5,".","_",6,"/",7,".",".",5,".","_","_"],[".",".",".",".",".",".",8,"_",".",".",".",".",".",".",8,"_","_"],[".",".",".",".",".",".",".","_",".",".",".",".",".",".",".","_","_"]]],"numberofstrings":4,"notes":["G","D","A","E"],"capo":0,"stringnotes":["G2","D2","A1","E1"],"comments":["Stave 1:","Stave 2:","Stave 3:","Stave 4:","Stave 5:","Stave 6:"],"timing":[["W","W","W","W",null,"W","W",null,"W","W","W","W",null,"W","W"],["W","W","W","W",null,"W","W",null,"W","W","W","W",null,"W","W"],["W","W","W","W",null,"W","W","W","W","W","W","W","W",null,"W","W","W"],["W","W","W","W",null,"W","W",null,"W","W","W","W",null,"W","W"],["W","W",null,"W","W","W","W","W","W",null,"W","W","W","W","W","W",null,"W","W","W","W","W","W","W","W","W","W","W","W","W",null,"W","W","W","W","W","W"],["W",null,"W","W","W","W","W",null,"W",null,"W","W","W","W","W"]],"timingvisible":false,"tabcounter":17,"stave":5,"totalstaves":6,"instrument":"4bass","selectedtuning":"4bass","version":"13"}

Member for

2 months 3 weeks
Submitted by T Mac on Wed, 2020-09-16 16:46