Devlin Bass Lesson 7/8

Chords

01234567891011121314151617181920212223
E
B
G
D
A
E
B
0 1 2 3 4 5 6 7 8 9 10 11 12 13 14 15 16 17 18 19 20 21 22 23
(/) Slide Up  (\) Slide Down  (h) Hammer On  (p) Pull Off  (b) Bend (r) Release (v) Vibrato

Stave 1:

G|-----8-------------------8-----------8-------------------------
D|--------7-----5h6-----------7-----------7-----5h6--------------
A|--5--------8----------5-----------5--------8-------5-----5-----
E|---------------------------------------------------------------

Stave 2:

G|--------7----------------------7-------------------
D|-----------------6h7--------------------6h7--------
A|--5--------5--5-------5--5--------5--5-------5-----
E|---------------------------------------------------

Stave 3:

G|--------------------5-----7---------------
D|--5--5--6--6--7--7------------------5-----
A|-----------------------------5h6h7--------
E|------------------------------------------

							http://www.guitartabcreator.com
Instruments
{"strings":[[[".",8,".",".",".",".",".","_",".",8,".","_",".",8,".",".",".",".",".",".","_",".","_"],[".",".",7,".",5,"h",6,"_",".",".",7,"_",".",".",7,".",5,"h",6,".","_",".","_"],[5,".",".",8,".",".",".","_",5,".",".","_",5,".",".",8,".",".",".",5,"_",5,"_"],[".",".",".",".",".",".",".","_",".",".",".","_",".",".",".",".",".",".",".",".","_",".","_"]],[[".","_",7,".",".",".",".",".",".",".","_",7,".",".",".",".",".",".","_"],[".","_",".",".",".",6,"h",7,".",".","_",".",".",".",6,"h",7,".","_"],[5,"_",".",5,5,".",".",".",5,5,"_",".",5,5,".",".",".",5,"_"],[".","_",".",".",".",".",".",".",".",".","_",".",".",".",".",".",".",".","_"]],[[".",".",".",".",".",".",5,"_",7,".",".",".",".",".",".","_"],[5,5,6,6,7,7,".","_",".",".",".",".",".",".",5,"_"],[".",".",".",".",".",".",".","_",".",5,"h",6,"h",7,".","_"],[".",".",".",".",".",".",".","_",".",".",".",".",".",".",".","_"]]],"numberofstrings":4,"notes":["G","D","A","E"],"capo":0,"stringnotes":["G2","D2","A1","E1"],"comments":["Stave 1:","Stave 2:","Stave 3:"],"timing":[["W","W","W","W","W",null,"W","W","W","W","W",null,"W","W","W","W","W",null,"W","W",null,"W",null,"W","W"],["W",null,"W","W","W","W",null,"W","W","W",null,"W","W","W","W",null,"W","W"],["W","W","W","W","W","W","W",null,"W","W",null,"W",null,"W","W"]],"timingvisible":false,"tabcounter":19,"stave":1,"totalstaves":3,"instrument":"4bass","selectedtuning":"4bass","version":"13"}

Member for

1 month 2 weeks
Submitted by T Mac on Wed, 2020-07-08 10:31