Devlin Bass Lesson 7/31

Chords

01234567891011121314151617181920212223
E
B
G
D
A
E
B
0 1 2 3 4 5 6 7 8 9 10 11 12 13 14 15 16 17 18 19 20 21 22 23
(/) Slide Up  (\) Slide Down  (h) Hammer On  (p) Pull Off  (b) Bend (r) Release (v) Vibrato

Stave 1:

G|-----2------------2p0--------2------------2p0-----
D|-----------0h2h4-------------------0h2h4----------
A|--0-----------------------0-----------------------
E|--------------------------------------------------

Stave 2:

G|-----2------------2p0-----------4----------7-----
D|-----------0h2h4----------2--------2/5--------5--
A|--0----------------------------------------------
E|-------------------------------------------------

Stave 3:

G|-----------------------------------------------
D|-----------3--1-----1-----------3-----1--------
A|--1-----1--------4-----4-----4-----4-----4--1--
E|-----------------------------------------------

Stave 4:

G|------------------------------------------------
D|-----------3--1-----1-----------3-----3/6\3-----
A|--1-----1--------4-----4-----4-----4---------6--
E|------------------------------------------------

Stave 5:

G|--------------------------------------------------
D|-----3--------------------------------------------
A|--6-----6--4--3--4-----4--3--4--6--4--1-----------
E|--------------------------------------------------

							http://www.guitartabcreator.com
Instruments
{"strings":[[[".",2,"_",".",".",".",".",".",2,"p",0,"_",".",2,"_",".",".",".",".",".",2,"p",0,"_"],[".",".","_",0,"h",2,"h",4,".",".",".","_",".",".","_",0,"h",2,"h",4,".",".",".","_"],[0,".","_",".",".",".",".",".",".",".",".","_",0,".","_",".",".",".",".",".",".",".",".","_"],[".",".","_",".",".",".",".",".",".",".",".","_",".",".","_",".",".",".",".",".",".",".",".","_"]],[[".",2,"_",".",".",".",".",".",2,"p",0,"_",".","_",4,".",".",".","_",7,"."],[".",".","_",0,"h",2,"h",4,".",".",".","_",2,"_",".",2,"/",5,"_",".",5],[0,".","_",".",".",".",".",".",".",".",".","_",".","_",".",".",".",".","_",".","."],[".",".","_",".",".",".",".",".",".",".",".","_",".","_",".",".",".",".","_",".","."]],[[".","_",".",".",".",".",".",".","_",".",".",".",".",".","."],[".","_",".",3,1,".",1,".","_",".",3,".",1,".","."],[1,"_",1,".",".",4,".",4,"_",4,".",4,".",4,1],[".","_",".",".",".",".",".",".","_",".",".",".",".",".","."]],[[".","_",".",".",".",".",".",".","_",".",".",".",".",".",".",".",".","."],[".","_",".",3,1,".",1,".","_",".",3,".",3,"/",6,"\\",3,"."],[1,"_",1,".",".",4,".",4,"_",4,".",4,".",".",".",".",".",6],[".","_",".",".",".",".",".",".","_",".",".",".",".",".",".",".",".","."]],[[".",".",".",".",".",".","_",".",".",".",".",".",".","_","_","_"],[".",3,".",".",".",".","_",".",".",".",".",".",".","_","_","_"],[6,".",6,4,3,4,"_",4,3,4,6,4,1,"_","_","_"],[".",".",".",".",".",".","_",".",".",".",".",".",".","_","_","_"]]],"numberofstrings":4,"notes":["G","D","A","E"],"capo":0,"stringnotes":["G2","D2","A1","E1"],"comments":["Stave 1:","Stave 2:","Stave 3:","Stave 4:","Stave 5:"],"timing":[["W","W",null,"W",null,"W",null,"W","W",null,"W",null,"W","W",null,"W",null,"W",null,"W","W",null,"W"],["W","W",null,"W",null,"W",null,"W","W",null,"W",null,"W",null,"W","W",null,"W","W","W","W"],["W",null,"W","W","W","W","W","W",null,"W","W","W","W","W","W"],["W",null,"W","W","W","W","W","W",null,"W","W","W","W",null,"W",null,"W","W"],["W","W","W","W","W","W",null,"W","W","W","W","W","W"]],"timingvisible":false,"tabcounter":16,"stave":4,"totalstaves":5,"instrument":"4bass","selectedtuning":"4bass","version":"13"}

Member for

1 month 1 week
Submitted by T Mac on Fri, 2020-07-31 16:31