Devlin Bass Lesson 6/24

Chords

01234567891011121314151617181920212223
E
B
G
D
A
E
B
0 1 2 3 4 5 6 7 8 9 10 11 12 13 14 15 16 17 18 19 20 21 22 23
(/) Slide Up  (\) Slide Down  (h) Hammer On  (p) Pull Off  (b) Bend (r) Release (v) Vibrato

Stave 1:

G|-----4--4/8--6--------------4--4/6--4--------
D|----------------9----------------------6-----
A|--2----------------------2-------------------
E|---------------------------------------------

Stave 2:

G|----------------------
D|----------6--8--6-----
A|--2/6--9-----------9--
E|----------------------

Stave 3:

G|--------------9--9-----7--9--7--------------
D|-----5--7--9--------------------9--7--5-----
A|--7-----------------------------------------
E|--------------------------------------------

Stave 4:

G|--------------4--4-----4h5p4--------
D|--------5--5------------------5--7--
A|--7--7------------------------------
E|------------------------------------

Stave 5:

G|--------3---------------2--------------3--------------------
D|-----------------0h2h5-----5--------------------3--------5--
A|--1------------------------------1--------------------------
E|---------------------------------------------1--------3-----

Stave 6:

G|--------3---------------2--------------3----------7--7/10--7-----
D|-----------------0h2h5-----5-----------------1/5--------------8--
A|--1------------------------------1-------------------------------
E|-----------------------------------------------------------------

							http://www.guitartabcreator.com
Instruments
{"strings":[[[".",4,4,"/",8,6,".","_","_",".",4,4,"/",6,4,".","_"],[".",".",".",".",".",".",9,"_","_",".",".",".",".",".",".",6,"_"],[2,".",".",".",".",".",".","_","_",2,".",".",".",".",".",".","_"],[".",".",".",".",".",".",".","_","_",".",".",".",".",".",".",".","_"]],[[".",".",".",".",".",".",".","."],[".",".",".",".",6,8,6,"."],[2,"/",6,9,".",".",".",9],[".",".",".",".",".",".",".","."]],[[".",".",".",".",9,9,"_",7,9,7,".",".",".","_"],[".",5,7,9,".",".","_",".",".",".",9,7,5,"_"],[7,".",".",".",".",".","_",".",".",".",".",".",".","_"],[".",".",".",".",".",".","_",".",".",".",".",".",".","_"]],[[".",".",".",".",4,4,"_",4,"h",5,"p",4,".","."],[".",".",5,5,".",".","_",".",".",".",".",".",5,7],[7,7,".",".",".",".","_",".",".",".",".",".",".","."],[".",".",".",".",".",".","_",".",".",".",".",".",".","."]],[[".","_",3,"_","_",".",".",".",".",".",2,".","_",".","_",3,"_",".",".","_",".","."],[".","_",".","_","_",0,"h",2,"h",5,".",5,"_",".","_",".","_",".",3,"_",".",5],[1,"_",".","_","_",".",".",".",".",".",".",".","_",1,"_",".","_",".",".","_",".","."],[".","_",".","_","_",".",".",".",".",".",".",".","_",".","_",".","_",1,".","_",3,"."]],[[".","_",3,"_","_",".",".",".",".",".",2,".","_",".","_",3,"_",".",".",".",7,7,"/",10,7,"."],[".","_",".","_","_",0,"h",2,"h",5,".",5,"_",".","_",".","_",1,"/",5,".",".",".",".",".",8],[1,"_",".","_","_",".",".",".",".",".",".",".","_",1,"_",".","_",".",".",".",".",".",".",".",".","."],[".","_",".","_","_",".",".",".",".",".",".",".","_",".","_",".","_",".",".",".",".",".",".",".",".","."]]],"numberofstrings":4,"notes":["G","D","A","E"],"capo":0,"stringnotes":["G2","D2","A1","E1"],"comments":["Stave 1:","Stave 2:","Stave 3:","Stave 4:","Stave 5:","Stave 6:"],"timing":[["W","W","W",null,"W","W","W",null,null,"W","W","W",null,"W","W","W"],["W",null,"W","W","W","W","W","W"],["W","W","W","W","W","W",null,"W","W","W","W","W","W"],["W","W","W","W","W","W",null,"W",null,"W",null,"W","W","W"],["W",null,"W",null,null,"W",null,"W",null,"W","W","W",null,"W",null,"W",null,"W","W",null,"W","W"],["W",null,"W",null,null,"W",null,"W",null,"W","W","W",null,"W",null,"W",null,"W",null,"W","W","W",null,"W","W","W"]],"timingvisible":false,"tabcounter":8,"stave":1,"totalstaves":6,"instrument":"4bass","selectedtuning":"4bass","version":"13"}

Member for

3 months
Submitted by T Mac on Wed, 2020-06-24 16:27