Devlin Bass Lesson 10/7

Chords

01234567891011121314151617181920212223
E
B
G
D
A
E
B
0 1 2 3 4 5 6 7 8 9 10 11 12 13 14 15 16 17 18 19 20 21 22 23
(/) Slide Up  (\) Slide Down  (h) Hammer On  (p) Pull Off  (b) Bend (r) Release (v) Vibrato

Stave 1:

G|----------------------9p0h9p0-------------------------11p0h11p0--
D|---------9/12p0--4/5---------------------9/12p0--4/7-------------
A|--0h2h5---------------------------0h2h5--------------------------
E|-----------------------------------------------------------------

Stave 2:

G|--11/14p0--------------11p0-----------------------12p0h7--
D|-----------9/12p0---------------14\12p0-------------------
A|-----------------------------------------14\12p0----------
E|-------------------10-------------------------------------

Stave 3:

G|----------------------7-----
D|---------9/12p0--4/5--------
A|--0h2h5---------------------
E|----------------------------

Stave 4:

G|--------2-----------------4-----------------7-----9/11p0------
D|-----4-----4-----------7-----7-----------5-----5----------12--
A|--5--------------5--6--------------6--7-----------------------
E|--------------------------------------------------------------

Stave 5:

G|-------7-------------------
D|----------4/5-----7/8\7p5--
A|--3h5----------------------
E|---------------------------

Stave 6:

G|----------10--------------
D|-------7------12--8h10p8--
A|--8\5---------------------
E|--------------------------

							http://www.guitartabcreator.com
Instruments
{"strings":[[[".",".",".",".",".",".",".",".",".",".",".",".",".",9,"p",0,"h",9,"p",0,"_",".",".",".",".",".",".",".",".",".",".",".",".",".",11,"p",0,"h",11,"p",0],[".",".",".",".",".",9,"/",12,"p",0,4,"/",5,".",".",".",".",".",".",".","_",".",".",".",".",".",9,"/",12,"p",0,4,"/",7,".",".",".",".",".",".","."],[0,"h",2,"h",5,".",".",".",".",".",".",".",".",".",".",".",".",".",".",".","_",0,"h",2,"h",5,".",".",".",".",".",".",".",".",".",".",".",".",".",".","."],[".",".",".",".",".",".",".",".",".",".",".",".",".",".",".",".",".",".",".",".","_",".",".",".",".",".",".",".",".",".",".",".",".",".",".",".",".",".",".",".","."]],[[11,"/",14,"p",0,".",".",".",".",".",".",11,"p",0,"_",".",".",".",".",".",".",".",".",".",".",12,"p",0,"h",7],[".",".",".",".",".",9,"/",12,"p",0,".",".",".",".","_",14,"\\",12,"p",0,".",".",".",".",".",".",".",".",".","."],[".",".",".",".",".",".",".",".",".",".",".",".",".",".","_",".",".",".",".",".",14,"\\",12,"p",0,".",".",".",".","."],[".",".",".",".",".",".",".",".",".",".",10,".",".",".","_",".",".",".",".",".",".",".",".",".",".",".",".",".",".","."]],[[".",".",".",".",".",".",".",".",".",".",".",".",".",7,"_"],[".",".",".",".",".",9,"/",12,"p",0,4,"/",5,".","_"],[0,"h",2,"h",5,".",".",".",".",".",".",".",".",".","_"],[".",".",".",".",".",".",".",".",".",".",".",".",".",".","_"]],[[".",".",2,".","_",".",".",".",4,".","_",".",".",".",7,".",9,"/",11,"p",0,"."],[".",4,".",4,"_",".",".",7,".",7,"_",".",".",5,".",5,".",".",".",".",".",12],[5,".",".",".","_",5,6,".",".",".","_",6,7,".",".",".",".",".",".",".",".","."],[".",".",".",".","_",".",".",".",".",".","_",".",".",".",".",".",".",".",".",".",".","."]],[[".",".",".",7,".",".",".","_",".",".",".",".",".",".","."],[".",".",".",".",4,"/",5,"_",7,"/",8,"\\",7,"p",5],[3,"h",5,".",".",".",".","_",".",".",".",".",".",".","."],[".",".",".",".",".",".",".","_",".",".",".",".",".",".","."]],[[".",".",".",".",10,".",".",".",".",".","."],[".",".",".",7,".",12,8,"h",10,"p",8],[8,"\\",5,".",".",".",".",".",".",".","."],[".",".",".",".",".",".",".",".",".",".","."]]],"numberofstrings":4,"notes":["G","D","A","E"],"capo":0,"stringnotes":["G2","D2","A1","E1"],"comments":["Stave 1:","Stave 2:","Stave 3:","Stave 4:","Stave 5:","Stave 6:"],"timing":[["W",null,"W",null,"W","W","W","W","W","W","W",null,"W","W",null,"W",null,"W",null,"W",null,"W",null,"W",null,"W","W",null,"W",null,"W","W",null,"W","W",null,"W",null,"W",null,"W"],["W",null,"W",null,"W","W",null,"W",null,"W","W","W",null,"W",null,"W",null,"W",null,"W","W",null,"W","W","W","W",null,"W",null,"W"],["W",null,"W",null,"W","W",null,"W",null,"W","W",null,"W","W"],["W","W","W","W","W","W","W","W","W","W",null,"W","W","W","W","W","W",null,"W","W","W","W"],["W",null,"W","W","W",null,"W",null,"W",null,"W",null,"W",null,"W"],["W",null,"W","W","W","W","W",null,"W",null,"W"]],"timingvisible":false,"tabcounter":11,"stave":5,"totalstaves":6,"instrument":"4bass","selectedtuning":"4bass","version":"13"}

Member for

5 months 1 week
Submitted by T Mac on Tue, 2020-10-06 16:57