C Major

Chords

01234567891011121314151617181920212223
E
B
G
D
A
E
B
0 1 2 3 4 5 6 7 8 9 10 11 12 13 14 15 16 17 18 19 20 21 22 23
(/) Slide Up  (\) Slide Down  (h) Hammer On  (p) Pull Off  (b) Bend (r) Release (v) Vibrato

Stave 1:

G|-----------------2--4--5-----5--4--2-----------------
D|--------2--3--5-----------------------5--3--2--------
A|--3--5-----------------------------------------5--3--
E|-----------------------------------------------------

Stave 2:

G|------------------------------------------------------
D|------------------------------------------------------
A|--3-----5-----7-----8-----10-----12-----14-----15-----
E|------------------------------------------------------

Stave 3:

G|-----------------------------------------------------------
D|-------------------7--9--10-----10--9--7-------------------
A|---------7--8--10-------------------------10--8--7---------
E|--8--10---------------------------------------------10--8--

							http://www.guitartabcreator.com
Instruments
{"strings":[[[".",".",".",".",".",2,4,5,"_",5,4,2,".",".",".",".","."],[".",".",2,3,5,".",".",".","_",".",".",".",5,3,2,".","."],[3,5,".",".",".",".",".",".","_",".",".",".",".",".",".",5,3],[".",".",".",".",".",".",".",".","_",".",".",".",".",".",".",".","."]],[[".","_",".","_",".","_",".","_",".","_",".","_",".","_",".","_"],[".","_",".","_",".","_",".","_",".","_",".","_",".","_",".","_"],[3,"_",5,"_",7,"_",8,"_",10,"_",12,"_",14,"_",15,"_"],[".","_",".","_",".","_",".","_",".","_",".","_",".","_",".","_"]],[[".",".",".",".",".",".",".",".","_",".",".",".",".",".",".",".","."],[".",".",".",".",".",7,9,10,"_",10,9,7,".",".",".",".","."],[".",".",7,8,10,".",".",".","_",".",".",".",10,8,7,".","."],[8,10,".",".",".",".",".",".","_",".",".",".",".",".",".",10,8]]],"numberofstrings":4,"notes":["G","D","A","E"],"capo":0,"stringnotes":["G2","D2","A1","E1"],"comments":["Stave 1:","Stave 2:","Stave 3:"],"timing":[["W","W","W","W","W","W","W","W",null,"W","W","W","W","W","W","W","W","W","W"],["W","W","W","W","W","W","W","W","W",null,"W",null,"W",null,"W"],["W","W","W","W","W","W","W","W",null,"W","W","W","W","W","W","W","W"]],"timingvisible":false,"tabcounter":17,"stave":2,"totalstaves":3,"instrument":"4bass","selectedtuning":"4bass","version":"13"}

Member for

6 months 3 weeks
Submitted by T Mac on Tue, 2020-11-17 12:58